999
DXF file: C:\Users\sesa63760\Dev\_Creo\CAD\MCADID0000641_3D-CAD\drw0001_1.dxf
999
Pro/ENGINEER 2019471 by Parametric Technology Corporation
  0
SECTION
  2
HEADER
  9
$ACADVER
  1
AC1024
  9
$DWGCODEPAGE
  3
ANSI_1252
  9
$EXTMAX
 10
245.2027525629
 20
346.7867500532
 30
0.0
  9
$EXTMIN
 10
0.0
 20
0.0
 30
0.0
  9
$LIMMIN
 10
0.0
 20
0.0
  9
$LIMMAX
 10
245.2027525629
 20
346.7867500532
  9
$VIEWCTR
 10
122.6013762814
 20
173.3933750266
  9
$VIEWSIZE
 40
346.7867500532
  9
$CLAYER
  8
0
  9
$LTSCALE
 40
22.605358522
  9
$CELTYPE
  6
BYLAYER
  9
$DIMSCALE
 40
1.0
  9
$DIMASZ
 40
2.9190803877
  9
$DIMEXO
 40
1.0
  9
$DIMDLI
 40
15.6182477061
  9
$DIMEXE
 40
1.0
  9
$DIMCEN
 40
3.6990586672
  9
$DIMLFAC
 40
1.0
  9
$DIMBLK
  1
_FILLED
  9
$DIMALT
 70
0
  9
$DIMALTF
 40
0.0393700787
  9
$DIMTXT
 40
4.0867125427
  9
$DIMTOL
 70
1
  9
$DIMLIM
 70
0
  9
$DIMTFAC
 40
1.0
  9
$DIMTP
 40
0.01
  9
$DIMTM
 40
0.01
  9
$DIMGAP
 40
0.625
  9
$DIMDSEP
 70
46
  9
$AUNITS
 70
0
  9
$PDMODE
 70
3
  9
$PDSIZE
 40
0.3125
  9
$HANDSEED
  5
344
  9
$TILEMODE
 70
1
  9
$MEASUREMENT
 70
1
  9
$INSUNITS
 70
4
  0
ENDSEC
  0
SECTION
  2
CLASSES
  0
CLASS
  1
ACDBDICTIONARYWDFLT
  2
AcDbDictionaryWithDefault
  3
AutoCAD 2000
 90
0
 91
1
280
0
281
0
  0
CLASS
  1
ACDBPLACEHOLDER
  2
AcDbPlaceHolder
  3
AutoCAD 2000
 90
0
 91
1
280
0
281
0
  0
CLASS
  1
LAYOUT
  2
AcDbLayout
  3
AutoCAD 2000
 90
0
 91
0
280
0
281
0
  0
ENDSEC
  0
SECTION
  2
TABLES
  0
TABLE
  2
VPORT
  5
8
100
AcDbSymbolTable
 70
2
  0
VPORT
  5
1F4
100
AcDbSymbolTableRecord
100
AcDbViewportTableRecord
  2
*ACTIVE
 70
0
 10
0.0
 20
0.0
 11
1.0
 21
1.0
 12
122.6013762814
 22
173.3933750266
 13
0.0
 23
0.0
 14
1.0
 24
1.0
 15
0.0
 25
0.0
 16
0.0
 26
0.0
 36
1.0
 17
0.0
 27
0.0
 37
0.0
 40
346.7867500532
 41
0.7070707071
 42
50.0
 43
0.0
 44
0.0
 50
0.0
 51
0.0
 71
0
 72
100
 73
1
 74
1
 75
0
 76
0
 77
0
 78
0
  0
ENDTAB
  0
TABLE
  2
LTYPE
  5
5
100
AcDbSymbolTable
 70
6
  0
LTYPE
  5
14
100
AcDbSymbolTableRecord
100
AcDbLinetypeTableRecord
  2
BYBLOCK
 70
0
  3

 72
65
 73
0
 40
0.0
  0
LTYPE
  5
15
100
AcDbSymbolTableRecord
100
AcDbLinetypeTableRecord
  2
BYLAYER
 70
0
  3

 72
65
 73
0
 40
0.0
  0
LTYPE
  5
16
100
AcDbSymbolTableRecord
100
AcDbLinetypeTableRecord
  2
CONTINUOUS
 70
64
  3
Solid line
 72
65
 73
0
 40
0.0
  0
LTYPE
  5
1F5
100
AcDbSymbolTableRecord
100
AcDbLinetypeTableRecord
  2
CENTER
 70
64
  3
____ _ ____ _ ____ _ ____ _ ____ _ ____ _ ____
 72
65
 73
4
 40
0.6
 49
0.375
 74
0
 49
-0.075
 74
0
 49
0.075
 74
0
 49
-0.075
 74
0
  0
LTYPE
  5
1F6
100
AcDbSymbolTableRecord
100
AcDbLinetypeTableRecord
  2
HIDDEN
 70
64
  3
- - - - - - - - - - - - - - - - - - - -
 72
65
 73
2
 40
0.2
 49
0.1
 74
0
 49
-0.1
 74
0
  0
LTYPE
  5
1F7
100
AcDbSymbolTableRecord
100
AcDbLinetypeTableRecord
  2
PHANTOM
 70
64
  3
_____ _ _ _____ _ _ _____ _ _ _____
 72
65
 73
6
 40
0.8
 49
0.45
 74
0
 49
-0.05
 74
0
 49
0.1
 74
0
 49
-0.05
 74
0
 49
0.1
 74
0
 49
-0.05
 74
0
  0
LTYPE
  5
1F8
100
AcDbSymbolTableRecord
100
AcDbLinetypeTableRecord
  2
DOT
 70
64
  3
. . . . . . . . . . . . . . . . . . . .
 72
65
 73
2
 40
0.2
 49
0.1
 74
0
 49
-0.1
 74
0
  0
LTYPE
  5
1F9
100
AcDbSymbolTableRecord
100
AcDbLinetypeTableRecord
  2
DASHED
 70
64
  3
- - - - - - - - - - - - - - - - - - - -
 72
65
 73
2
 40
0.2
 49
0.1
 74
0
 49
-0.1
 74
0
  0
ENDTAB
  0
TABLE
  2
LAYER
  5
2
100
AcDbSymbolTable
 70
36
  0
LAYER
  5
10
100
AcDbSymbolTableRecord
100
AcDbLayerTableRecord
  2
0
 70
0
 62
7
  6
CONTINUOUS
370
-3
390
F
  0
LAYER
  5
1FA
100
AcDbSymbolTableRecord
100
AcDbLayerTableRecord
  2
DEFAULT_1
 70
0
 62
7
  6
CENTER
370
-3
390
F
  0
LAYER
  5
1FB
100
AcDbSymbolTableRecord
100
AcDbLayerTableRecord
  2
DEFAULT_2
 70
0
 62
8
  6
HIDDEN
370
-3
390
F
  0
LAYER
  5
1FC
100
AcDbSymbolTableRecord
100
AcDbLayerTableRecord
  2
DEFAULT_3
 70
0
 62
7
  6
PHANTOM
370
-3
390
F
  0
LAYER
  5
1FD
100
AcDbSymbolTableRecord
100
AcDbLayerTableRecord
  2
00_COMPONENTS
 70
0
 62
7
  6
CONTINUOUS
370
-3
390
F
  0
LAYER
  5
1FE
100
AcDbSymbolTableRecord
100
AcDbLayerTableRecord
  2
01_1_DEFAULT_DATUMS
 70
0
 62
7
  6
CONTINUOUS
370
-3
390
F
  0
LAYER
  5
1FF
100
AcDbSymbolTableRecord
100
AcDbLayerTableRecord
  2
01_PLANES
 70
0
 62
7
  6
CONTINUOUS
370
-3
390
F
  0
LAYER
  5
200
100
AcDbSymbolTableRecord
100
AcDbLayerTableRecord
  2
02_COORD_SYS
 70
0
 62
7
  6
CONTINUOUS
370
-3
390
F
  0
LAYER
  5
201
100
AcDbSymbolTableRecord
100
AcDbLayerTableRecord
  2
03_AXES
 70
0
 62
7
  6
CONTINUOUS
370
-3
390
F
  0
LAYER
  5
202
100
AcDbSymbolTableRecord
100
AcDbLayerTableRecord
  2
04_POINTS
 70
0
 62
7
  6
CONTINUOUS
370
-3
390
F
  0
LAYER
  5
203
100
AcDbSymbolTableRecord
100
AcDbLayerTableRecord
  2
05_CURVES
 70
0
 62
7
  6
CONTINUOUS
370
-3
390
F
  0
LAYER
  5
204
100
AcDbSymbolTableRecord
100
AcDbLayerTableRecord
  2
06_SURFS
 70
0
 62
7
  6
CONTINUOUS
370
-3
390
F
  0
LAYER
  5
205
100
AcDbSymbolTableRecord
100
AcDbLayerTableRecord
  2
07_COSMETICS
 70
0
 62
7
  6
CONTINUOUS
370
-3
390
F
  0
LAYER
  5
206
100
AcDbSymbolTableRecord
100
AcDbLayerTableRecord
  2
10_NOTES
 70
0
 62
7
  6
CONTINUOUS
370
-3
390
F
  0
LAYER
  5
207
100
AcDbSymbolTableRecord
100
AcDbLayerTableRecord
  2
11_NOTES_PUB
 70
0
 62
7
  6
CONTINUOUS
370
-3
390
F
  0
LAYER
  5
208
100
AcDbSymbolTableRecord
100
AcDbLayerTableRecord
  2
13_REF_GTOL
 70
0
 62
7
  6
CONTINUOUS
370
-3
390
F
  0
LAYER
  5
209
100
AcDbSymbolTableRecord
100
AcDbLayerTableRecord
  2
16_MISC
 70
0
 62
7
  6
CONTINUOUS
370
-3
390
F
  0
LAYER
  5
20A
100
AcDbSymbolTableRecord
100
AcDbLayerTableRecord
  2
17_NO_PRINT
 70
0
 62
7
  6
CONTINUOUS
370
-3
390
F
  0
LAYER
  5
20B
100
AcDbSymbolTableRecord
100
AcDbLayerTableRecord
  2
18_DATUM_CAMS_JOINTS
 70
0
 62
7
  6
CONTINUOUS
370
-3
390
F
  0
LAYER
  5
20C
100
AcDbSymbolTableRecord
100
AcDbLayerTableRecord
  2
19_DATUM_FUNCTIONAL
 70
0
 62
7
  6
CONTINUOUS
370
-3
390
F
  0
LAYER
  5
20D
100
AcDbSymbolTableRecord
100
AcDbLayerTableRecord
  2
20_DATUM_KINEMATIC_SCHEME
 70
0
 62
7
  6
CONTINUOUS
370
-3
390
F
  0
ENDTAB
  0
TABLE
  2
STYLE
  5
3
100
AcDbSymbolTable
 70
1
  0
STYLE
  5
11
100
AcDbSymbolTableRecord
100
AcDbTextStyleTableRecord
  2
STANDARD
 70
0
 40
0.0
 41
0.8
 50
0.0
 71
0
 42
0.2
  3
txt
  4

  0
STYLE
  5
20E
100
AcDbSymbolTableRecord
100
AcDbTextStyleTableRecord
  2
TEXTSTYLE_1
 70
0
 40
0.0
 41
0.8
 50
0.0
 71
0
 42
0.2
  3
gdt
  4

  0
ENDTAB
  0
TABLE
  2
VIEW
  5
6
100
AcDbSymbolTable
 70
0
  0
ENDTAB
  0
TABLE
  2
UCS
  5
7
100
AcDbSymbolTable
 70
0
  0
ENDTAB
  0
TABLE
  2
APPID
  5
9
100
AcDbSymbolTable
 70
1
  0
APPID
  5
20F
100
AcDbSymbolTableRecord
100
AcDbRegAppTableRecord
  2
ACAD
 70
0
  0
ENDTAB
  0
TABLE
  2
BLOCK_RECORD
  5
1
100
AcDbSymbolTable
 70
0
  0
BLOCK_RECORD
  5
210
100
AcDbSymbolTableRecord
100
AcDbBlockTableRecord
  2
*Model_Space
  0
BLOCK_RECORD
  5
211
100
AcDbSymbolTableRecord
100
AcDbBlockTableRecord
  2
*Paper_Space
  0
BLOCK_RECORD
  5
212
100
AcDbSymbolTableRecord
100
AcDbBlockTableRecord
  2
_FILLED
  0
ENDTAB
  0
TABLE
  2
DIMSTYLE
  5
A
100
AcDbSymbolTable
 70
1
100
AcDbDimStyleTable
 71
0
  0
DIMSTYLE
105
213
100
AcDbSymbolTableRecord
100
AcDbDimStyleTableRecord
  2
STANDARD
 70
0
  3

  4

 40
1.0
 41
2.9190803877
 42
1.0
 43
0.38
 44
1.0
 45
0.0
 46
0.0
 47
0.01
 48
0.01
140
4.0867125427
141
0.09
142
0.0
143
25.4
144
1.0
145
0.0
146
1.0
147
0.625
 71
1
 72
0
 73
0
 74
0
 75
0
 76
0
 77
1
 78
8
 79
2
170
0
171
1
172
0
173
0
174
0
175
0
176
0
177
0
178
0
270
2
179
2
271
2
272
2
273
2
274
2
275
0
280
0
281
0
282
0
283
1
284
8
285
0
286
0
287
3
288
0
340
11
278
46
341
212
342
212
343
212
344
212
  0
ENDTAB
  0
ENDSEC
  0
SECTION
  2
BLOCKS
  0
BLOCK
  5
20
100
AcDbEntity
  8
0
100
AcDbBlockBegin
  2
*Model_Space
 70
0
 10
0.0
 20
0.0
 30
0.0
  3
*Model_Space
  1

  0
ENDBLK
  5
21
100
AcDbEntity
  8
0
100
AcDbBlockEnd
  0
BLOCK
  5
1C
100
AcDbEntity
  8
0
100
AcDbBlockBegin
  2
*Paper_Space
 70
0
 10
0.0
 20
0.0
 30
0.0
  3
*Paper_Space
  1

  0
ENDBLK
  5
1D
100
AcDbEntity
  8
0
100
AcDbBlockEnd
  0
BLOCK
  5
214
100
AcDbEntity
  8
0
100
AcDbBlockBegin
  2
_FILLED
 70
64
 10
0.0
 20
0.0
  3
_FILLED
  1

  0
SOLID
  5
215
100
AcDbEntity
  8
0
  6
BYBLOCK
 62
0
100
AcDbTrace
 10
0.0
 20
0.0
 11
-1.0
 21
0.25
 12
-1.0
 22
-0.25
 13
-1.0
 23
-0.25
  0
ENDBLK
  5
216
100
AcDbEntity
  8
0
  6
BYBLOCK
 62
0
100
AcDbBlockEnd
  0
ENDSEC
  0
SECTION
  2
ENTITIES
  0
LINE
  5
217
100
AcDbEntity
  8
0
100
AcDbLine
 62
7
  6
CONTINUOUS
 10
31.8026247789
 20
252.49383626
 11
72.2489642675
 21
275.8454018615
  0
LINE
  5
218
100
AcDbEntity
  8
0
100
AcDbLine
 62
7
  6
CONTINUOUS
 10
33.7469596936
 20
251.3712993688
 11
36.2218231238
 21
252.8001539074
  0
LINE
  5
219
100
AcDbEntity
  8
0
100
AcDbLine
 62
7
  6
CONTINUOUS
 10
71.7184357519
 20
273.2940104317
 11
74.1932991822
 21
274.7228649703
  0
LINE
  5
21A
100
AcDbEntity
  8
0
100
AcDbLine
 62
7
  6
CONTINUOUS
 10
30.6442748092
 20
248.2635802947
 11
31.2221839436
 21
248.5972342974
  0
LINE
  5
21B
100
AcDbEntity
  8
0
100
AcDbLine
 62
7
  6
CONTINUOUS
 10
31.8026247789
 20
252.49383626
 11
31.1306537105
 21
247.9827756578
  0
LINE
  5
21C
100
AcDbEntity
  8
0
100
AcDbLine
 62
7
  6
CONTINUOUS
 10
33.7469596936
 20
248.9217921174
 11
35.3431522993
 21
249.8433488471
  0
LINE
  5
21D
100
AcDbEntity
  8
0
100
AcDbLine
 62
7
  6
CONTINUOUS
 10
78.4359575331
 20
272.2734204432
 11
75.9610941028
 21
270.8445659046
  0
LINE
  5
21E
100
AcDbEntity
  8
0
100
AcDbLine
 62
7
  6
CONTINUOUS
 10
40.4644814747
 20
250.3507093803
 11
37.9896180444
 21
248.9218548417
  0
LINE
  5
21F
100
AcDbEntity
  8
0
100
AcDbLine
 62
7
  6
CONTINUOUS
 10
38.7674546395
 20
243.1247464531
 11
40.676635
 21
244.2270056686
  0
LINE
  5
220
100
AcDbEntity
  8
0
100
AcDbLine
 62
7
  6
CONTINUOUS
 10
38.7674546395
 20
243.1247464531
 11
39.0460258137
 21
224.5356128356
  0
LINE
  5
221
100
AcDbEntity
  8
0
100
AcDbLine
 62
7
  6
CONTINUOUS
 10
33.7469596936
 20
251.3712993688
 11
33.7469596936
 21
248.9217921174
  0
LINE
  5
222
100
AcDbEntity
  8
0
100
AcDbLine
 62
7
  6
CONTINUOUS
 10
33.7469596936
 20
246.472284866
 11
33.7469596936
 21
178.5392837609
  0
LINE
  5
223
100
AcDbEntity
  8
0
100
AcDbLine
 62
7
  6
CONTINUOUS
 10
35.3431522993
 20
250.4323282598
 11
35.3431522993
 21
249.1259243924
  0
LINE
  5
224
100
AcDbEntity
  8
0
100
AcDbLine
 62
7
  6
CONTINUOUS
 10
36.2218231238
 20
252.8001539074
 11
36.2218231238
 21
251.6570505234
  0
LINE
  5
225
100
AcDbEntity
  8
0
100
AcDbLine
 62
7
  6
CONTINUOUS
 10
37.9896180444
 20
248.9218548417
 11
37.9896180444
 21
246.4723475903
  0
LINE
  5
226
100
AcDbEntity
  8
0
100
AcDbLine
 62
7
  6
CONTINUOUS
 10
75.4664334772
 20
227.2850948521
 11
77.9412969075
 21
228.7139493907
  0
LINE
  5
227
100
AcDbEntity
  8
0
100
AcDbLine
 62
7
  6
CONTINUOUS
 10
113.4379095356
 20
249.207805915
 11
115.9127729659
 21
250.6366604536
  0
LINE
  5
228
100
AcDbEntity
  8
0
100
AcDbLine
 62
7
  6
CONTINUOUS
 10
71.2237910238
 20
224.3864958206
 11
73.1329713843
 21
225.4887550361
  0
LINE
  5
229
100
AcDbEntity
  8
0
100
AcDbLine
 62
7
  6
CONTINUOUS
 10
75.4664334772
 20
224.8355876007
 11
77.0626260829
 21
225.7571443304
  0
LINE
  5
22A
100
AcDbEntity
  8
0
100
AcDbLine
 62
7
  6
CONTINUOUS
 10
84.6588216326
 20
227.2851169479
 11
115.9128112374
 21
245.329508549
  0
LINE
  5
22B
100
AcDbEntity
  8
0
100
AcDbLine
 62
7
  6
CONTINUOUS
 10
162.1594253121
 20
72.1532002518
 11
155.0883280607
 21
76.235607797
  0
LINE
  5
22C
100
AcDbEntity
  8
0
100
AcDbLine
 62
7
  6
CONTINUOUS
 10
160.4611042822
 20
75.9070466639
 11
153.3900070307
 21
79.9894542091
  0
LINE
  5
22D
100
AcDbEntity
  8
0
100
AcDbLine
 62
7
  6
CONTINUOUS
 10
48.7508538835
 20
149.2390515222
 11
52.7602708108
 21
146.0316386726
  0
LINE
  5
22E
100
AcDbEntity
  8
0
100
AcDbLine
 62
7
  6
CONTINUOUS
 10
61.0414769265
 20
142.9404252716
 11
61.0414769265
 21
179.6830340424
  0
LINE
  5
22F
100
AcDbEntity
  8
0
100
AcDbLine
 62
7
  6
CONTINUOUS
 10
66.6275619129
 20
204.3820713761
 11
66.6275619129
 21
196.493531265
  0
LINE
  5
230
100
AcDbEntity
  8
0
100
AcDbLine
 62
7
  6
CONTINUOUS
 10
66.6982722966
 20
204.1779450663
 11
66.6982722966
 21
196.9234602391
  0
LINE
  5
231
100
AcDbEntity
  8
0
100
AcDbLine
 62
7
  6
CONTINUOUS
 10
66.6229153012
 20
196.493531265
 11
66.6982722966
 21
196.9234602391
  0
LINE
  5
232
100
AcDbEntity
  8
0
100
AcDbLine
 62
7
  6
CONTINUOUS
 10
82.1839582023
 20
223.406755158
 11
84.6588216326
 21
224.8356096965
  0
LINE
  5
233
100
AcDbEntity
  8
0
100
AcDbLine
 62
7
  6
CONTINUOUS
 10
115.9128112374
 20
242.8800012976
 11
118.3876746677
 21
244.3088558362
  0
LINE
  5
234
100
AcDbEntity
  8
0
100
AcDbLine
 62
7
  6
CONTINUOUS
 10
84.057783371
 20
223.7945751112
 11
116.5138494991
 21
242.5329817739
  0
LINE
  5
235
100
AcDbEntity
  8
0
100
AcDbLine
 62
7
  6
CONTINUOUS
 10
118.3876746677
 20
241.8593485848
 11
118.0341616795
 21
241.6552489842
  0
LINE
  5
236
100
AcDbEntity
  8
0
100
AcDbLine
 62
7
  6
CONTINUOUS
 10
84.0843198392
 20
222.05441566
 11
82.1839582023
 21
220.9572479066
  0
LINE
  5
237
100
AcDbEntity
  8
0
100
AcDbLine
 62
7
  6
CONTINUOUS
 10
118.423045757
 20
241.4307317367
 11
85.9669796288
 21
222.692325074
  0
LINE
  5
238
100
AcDbEntity
  8
0
100
AcDbLine
 62
7
  6
CONTINUOUS
 10
66.8396984962
 20
204.2595970333
 11
66.6982722966
 21
204.1779450663
  0
LINE
  5
239
100
AcDbEntity
  8
0
100
AcDbLine
 62
7
  6
CONTINUOUS
 10
35.3016788466
 20
156.1095923165
 11
153.3900070307
 21
87.9331202372
  0
LINE
  5
23A
100
AcDbEntity
  8
0
100
AcDbLine
 62
7
  6
CONTINUOUS
 10
48.7507522998
 20
149.2388755702
 11
33.9772988836
 21
157.7681399191
  0
LINE
  5
23B
100
AcDbEntity
  8
0
100
AcDbLine
 62
7
  6
CONTINUOUS
 10
153.3900070307
 20
89.6241827312
 11
61.0414769265
 21
142.9404252716
  0
LINE
  5
23C
100
AcDbEntity
  8
0
100
AcDbLine
 62
7
  6
CONTINUOUS
 10
33.3094518015
 20
159.5283447581
 11
46.7762807115
 21
151.7534433535
  0
LINE
  5
23D
100
AcDbEntity
  8
0
100
AcDbLine
 62
7
  6
CONTINUOUS
 10
70.6581691885
 20
137.3883510101
 11
70.6581691885
 21
174.1309597809
  0
LINE
  5
23E
100
AcDbEntity
  8
0
100
AcDbLine
 62
7
  6
CONTINUOUS
 10
71.7184357519
 20
272.1509070477
 11
71.7184357519
 21
273.2940104317
  0
LINE
  5
23F
100
AcDbEntity
  8
0
100
AcDbLine
 62
7
  6
CONTINUOUS
 10
74.1932991822
 20
274.7228649703
 11
74.1932991822
 21
272.6437547497
  0
LINE
  5
240
100
AcDbEntity
  8
0
100
AcDbLine
 62
7
  6
CONTINUOUS
 10
75.4664334772
 20
227.2850948521
 11
75.4664334772
 21
224.8355876007
  0
LINE
  5
241
100
AcDbEntity
  8
0
100
AcDbLine
 62
7
  6
CONTINUOUS
 10
77.0626260829
 20
226.3461237431
 11
77.0626260829
 21
225.0397198757
  0
LINE
  5
242
100
AcDbEntity
  8
0
100
AcDbLine
 62
7
  6
CONTINUOUS
 10
77.9412969075
 20
228.7139493907
 11
77.9412969075
 21
227.5708460067
  0
LINE
  5
243
100
AcDbEntity
  8
0
100
AcDbLine
 62
7
  6
CONTINUOUS
 10
77.9413175153
 20
223.4067449599
 11
77.9413175153
 21
197.8502193038
  0
LINE
  5
244
100
AcDbEntity
  8
0
100
AcDbLine
 62
7
  6
CONTINUOUS
 10
78.012027899
 20
197.646092994
 11
78.012027899
 21
190.3916081668
  0
LINE
  5
245
100
AcDbEntity
  8
0
100
AcDbLine
 62
7
  6
CONTINUOUS
 10
70.9452198496
 20
206.119021211
 11
71.2237910238
 21
224.3864958206
  0
LINE
  5
246
100
AcDbEntity
  8
0
100
AcDbLine
 62
7
  6
CONTINUOUS
 10
73.1329713843
 20
225.4887550361
 11
72.8544002101
 21
207.2212804265
  0
LINE
  5
247
100
AcDbEntity
  8
0
100
AcDbLine
 62
7
  6
CONTINUOUS
 10
81.3510943708
 20
193.4488784574
 11
80.4822659141
 21
188.4920124764
  0
LINE
  5
248
100
AcDbEntity
  8
0
100
AcDbLine
 62
7
  6
CONTINUOUS
 10
72.8544002101
 20
207.2212804265
 11
70.9452198496
 21
206.119021211
  0
LINE
  5
249
100
AcDbEntity
  8
0
100
AcDbLine
 62
7
  6
CONTINUOUS
 10
72.0263831407
 20
205.44688768
 11
70.1172027802
 21
204.3446284645
  0
LINE
  5
24A
100
AcDbEntity
  8
0
100
AcDbLine
 62
7
  6
CONTINUOUS
 10
45.1769144971
 20
157.4595893089
 11
31.8871837892
 21
165.1322453319
  0
LINE
  5
24B
100
AcDbEntity
  8
0
100
AcDbLine
 62
7
  6
CONTINUOUS
 10
84.3363522255
 20
205.5271018408
 11
84.057783371
 21
223.7945751112
  0
LINE
  5
24C
100
AcDbEntity
  8
0
100
AcDbLine
 62
7
  6
CONTINUOUS
 10
85.9669796288
 20
222.692325074
 11
86.2455484834
 21
204.4248518035
  0
LINE
  5
24D
100
AcDbEntity
  8
0
100
AcDbLine
 62
7
  6
CONTINUOUS
 10
82.1839375946
 20
227.5708562047
 11
82.1839375946
 21
228.7139595887
  0
LINE
  5
24E
100
AcDbEntity
  8
0
100
AcDbLine
 62
7
  6
CONTINUOUS
 10
82.1839582023
 20
197.8502295018
 11
82.1839582023
 21
223.406755158
  0
LINE
  5
24F
100
AcDbEntity
  8
0
100
AcDbLine
 62
7
  6
CONTINUOUS
 10
82.2546685861
 20
196.8296007749
 11
82.2546685861
 21
197.6461031921
  0
LINE
  5
250
100
AcDbEntity
  8
0
100
AcDbLine
 62
7
  6
CONTINUOUS
 10
83.0626260829
 20
226.3461237431
 11
83.0626260829
 21
225.0397198757
  0
LINE
  5
251
100
AcDbEntity
  8
0
100
AcDbLine
 62
7
  6
CONTINUOUS
 10
83.3861442412
 20
166.7826261996
 11
83.3861442412
 21
130.0400174287
  0
LINE
  5
252
100
AcDbEntity
  8
0
100
AcDbLine
 62
7
  6
CONTINUOUS
 10
84.6588216326
 20
227.2851169479
 11
84.6588216326
 21
224.8356096965
  0
LINE
  5
253
100
AcDbEntity
  8
0
100
AcDbLine
 62
7
  6
CONTINUOUS
 10
77.2753136322
 20
182.9373773524
 11
73.4169970475
 21
179.7065424958
  0
LINE
  5
254
100
AcDbEntity
  8
0
100
AcDbLine
 62
7
  6
CONTINUOUS
 10
89.0735330509
 20
202.8485697684
 11
115.3164923349
 21
217.9998589343
  0
LINE
  5
255
100
AcDbEntity
  8
0
100
AcDbLine
 62
7
  6
CONTINUOUS
 10
118.3876746677
 20
218.75233018
 11
82.1839582023
 21
197.8502295018
  0
LINE
  5
256
100
AcDbEntity
  8
0
100
AcDbLine
 62
7
  6
CONTINUOUS
 10
82.2546685861
 20
197.6461031921
 11
84.3759800977
 21
198.8708356537
  0
LINE
  5
257
100
AcDbEntity
  8
0
100
AcDbLine
 62
7
  6
CONTINUOUS
 10
116.1956527723
 20
217.2418225779
 11
118.316964284
 21
218.4665550395
  0
LINE
  5
258
100
AcDbEntity
  8
0
100
AcDbLine
 62
7
  6
CONTINUOUS
 10
84.8002459328
 20
198.625891201
 11
116.6199186074
 21
216.9968781252
  0
LINE
  5
259
100
AcDbEntity
  8
0
100
AcDbLine
 62
7
  6
CONTINUOUS
 10
175.5132718692
 20
95.2825470603
 11
176.9274913195
 21
94.4660655513
  0
LINE
  5
25A
100
AcDbEntity
  8
0
100
AcDbLine
 62
7
  6
CONTINUOUS
 10
29.9850913192
 20
180.7111503453
 11
44.7489483449
 21
172.1874263496
  0
LINE
  5
25B
100
AcDbEntity
  8
0
100
AcDbLine
 62
7
  6
CONTINUOUS
 10
94.0790694235
 20
186.100544876
 11
93.2102409667
 21
181.1436788951
  0
LINE
  5
25C
100
AcDbEntity
  8
0
100
AcDbLine
 62
7
  6
CONTINUOUS
 10
129.3478936601
 20
209.6485445438
 11
97.5282209854
 21
191.2775576196
  0
LINE
  5
25D
100
AcDbEntity
  8
0
100
AcDbLine
 62
7
  6
CONTINUOUS
 10
103.6396315748
 20
252.392144401
 11
103.6396315748
 21
249.534385941
  0
LINE
  5
25E
100
AcDbEntity
  8
0
100
AcDbLine
 62
7
  6
CONTINUOUS
 10
90.0032886849
 20
175.589043771
 11
86.1449721001
 21
172.3582089144
  0
LINE
  5
25F
100
AcDbEntity
  8
0
100
AcDbLine
 62
7
  6
CONTINUOUS
 10
61.0414769265
 20
179.6830340424
 11
153.3900070307
 21
126.3667915021
  0
LINE
  5
260
100
AcDbEntity
  8
0
100
AcDbLine
 62
7
  6
CONTINUOUS
 10
153.3900070307
 20
133.5351481905
 11
48.7508538835
 21
193.9472247241
  0
LINE
  5
261
100
AcDbEntity
  8
0
100
AcDbLine
 62
7
  6
CONTINUOUS
 10
208.2263685028
 20
102.9540213636
 11
188.4272961987
 21
114.3847624901
  0
LINE
  5
262
100
AcDbEntity
  8
0
100
AcDbLine
 62
7
  6
CONTINUOUS
 10
153.3900070307
 20
136.0015200242
 11
160.4611042822
 21
131.919112479
  0
LINE
  5
263
100
AcDbEntity
  8
0
100
AcDbLine
 62
7
  6
CONTINUOUS
 10
111.6396315748
 20
252.392144401
 11
111.6396315748
 21
249.534385941
  0
LINE
  5
264
100
AcDbEntity
  8
0
100
AcDbLine
 62
7
  6
CONTINUOUS
 10
113.4379095356
 20
248.064702531
 11
113.4379095356
 21
249.207805915
  0
LINE
  5
265
100
AcDbEntity
  8
0
100
AcDbLine
 62
7
  6
CONTINUOUS
 10
115.9127729659
 20
250.6366604536
 11
115.9127729659
 21
248.557550233
  0
LINE
  5
266
100
AcDbEntity
  8
0
100
AcDbLine
 62
7
  6
CONTINUOUS
 10
115.9128112374
 20
245.329508549
 11
115.9128112374
 21
242.8800012976
  0
LINE
  5
267
100
AcDbEntity
  8
0
100
AcDbLine
 62
7
  6
CONTINUOUS
 10
63.4159630194
 20
190.938896141
 11
153.8203147785
 21
138.7451000984
  0
LINE
  5
268
100
AcDbEntity
  8
0
100
AcDbLine
 62
7
  6
CONTINUOUS
 10
47.6597611637
 20
204.5790067529
 11
65.8193955477
 21
194.0947741379
  0
LINE
  5
269
100
AcDbEntity
  8
0
100
AcDbLine
 62
7
  6
CONTINUOUS
 10
157.0271498081
 20
144.2998029165
 11
66.6229153012
 21
196.493531265
  0
LINE
  5
26A
100
AcDbEntity
  8
0
100
AcDbLine
 62
7
  6
CONTINUOUS
 10
66.6982722966
 20
196.9234602391
 11
78.012027899
 21
190.3916081668
  0
LINE
  5
26B
100
AcDbEntity
  8
0
100
AcDbLine
 62
7
  6
CONTINUOUS
 10
118.316964284
 20
218.4665550395
 11
118.316964284
 21
217.6500526224
  0
LINE
  5
26C
100
AcDbEntity
  8
0
100
AcDbLine
 62
7
  6
CONTINUOUS
 10
118.3876746677
 20
244.3088558362
 11
118.3876746677
 21
241.4511527826
  0
LINE
  5
26D
100
AcDbEntity
  8
0
100
AcDbLine
 62
7
  6
CONTINUOUS
 10
118.3876746677
 20
239.0703890733
 11
118.3876746677
 21
218.75233018
  0
LINE
  5
26E
100
AcDbEntity
  8
0
100
AcDbLine
 62
7
  6
CONTINUOUS
 10
118.5592387111
 20
246.8399802675
 11
118.5592387111
 21
245.5335764001
  0
LINE
  5
26F
100
AcDbEntity
  8
0
100
AcDbLine
 62
7
  6
CONTINUOUS
 10
119.1956351085
 20
217.1899638472
 11
119.1956351085
 21
219.666286655
  0
LINE
  5
270
100
AcDbEntity
  8
0
100
AcDbLine
 62
7
  6
CONTINUOUS
 10
119.2663454922
 20
219.9770524436
 11
119.2663454922
 21
245.5335780998
  0
LINE
  5
271
100
AcDbEntity
  8
0
100
AcDbLine
 62
7
  6
CONTINUOUS
 10
118.1444769024
 20
222.8415967799
 11
118.423045757
 21
241.4307317367
  0
LINE
  5
272
100
AcDbEntity
  8
0
100
AcDbLine
 62
7
  6
CONTINUOUS
 10
166.2593557473
 20
141.9620343612
 11
159.1882584959
 21
146.0444419064
  0
LINE
  5
273
100
AcDbEntity
  8
0
100
AcDbLine
 62
7
  6
CONTINUOUS
 10
215.2262497336
 20
115.0784455872
 11
195.4271774295
 21
126.5091867138
  0
LINE
  5
274
100
AcDbEntity
  8
0
100
AcDbLine
 62
7
  6
CONTINUOUS
 10
80.4598418001
 20
193.9634317283
 11
161.3240337073
 21
147.2775249392
  0
LINE
  5
275
100
AcDbEntity
  8
0
100
AcDbLine
 62
7
  6
CONTINUOUS
 10
66.6982722966
 20
204.1779450663
 11
78.012027899
 21
197.646092994
  0
LINE
  5
276
100
AcDbEntity
  8
0
100
AcDbLine
 62
7
  6
CONTINUOUS
 10
77.9413175153
 20
197.8502193038
 11
66.6275619129
 21
204.3820713761
  0
LINE
  5
277
100
AcDbEntity
  8
0
100
AcDbLine
 62
7
  6
CONTINUOUS
 10
41.8740339294
 20
219.6938885853
 11
68.1172117339
 21
204.5427255806
  0
LINE
  5
278
100
AcDbEntity
  8
0
100
AcDbLine
 62
7
  6
CONTINUOUS
 10
167.532083775
 20
150.8617229221
 11
84.3759800977
 21
198.8708356537
  0
LINE
  5
279
100
AcDbEntity
  8
0
100
AcDbLine
 62
7
  6
CONTINUOUS
 10
85.1643707271
 20
203.7527082674
 11
87.073566985
 21
202.6504582302
  0
LINE
  5
27A
100
AcDbEntity
  8
0
100
AcDbLine
 62
7
  6
CONTINUOUS
 10
86.2455484834
 20
204.4248518035
 11
84.3363522255
 21
205.5271018408
  0
LINE
  5
27B
100
AcDbEntity
  8
0
100
AcDbLine
 62
7
  6
CONTINUOUS
 10
71.2237910238
 20
224.3864958206
 11
38.7674546395
 21
243.1247464531
  0
LINE
  5
27C
100
AcDbEntity
  8
0
100
AcDbLine
 62
7
  6
CONTINUOUS
 10
205.5127628584
 20
147.2443651616
 11
206.9269823086
 21
146.4278836526
  0
LINE
  5
27D
100
AcDbEntity
  8
0
100
AcDbLine
 62
7
  6
CONTINUOUS
 10
77.9413175153
 20
220.9572377085
 11
73.106434695
 21
223.7485954573
  0
LINE
  5
27E
100
AcDbEntity
  8
0
100
AcDbLine
 62
7
  6
CONTINUOUS
 10
39.1563228196
 20
243.3492582614
 11
30.6442748092
 21
248.2635802947
  0
LINE
  5
27F
100
AcDbEntity
  8
0
100
AcDbLine
 62
7
  6
CONTINUOUS
 10
40.676635
 20
244.2270056686
 11
73.1329713843
 21
225.4887550361
  0
LINE
  5
280
100
AcDbEntity
  8
0
100
AcDbLine
 62
7
  6
CONTINUOUS
 10
33.7469596936
 20
248.9217921174
 11
37.9896180444
 21
246.4723475903
  0
LINE
  5
281
100
AcDbEntity
  8
0
100
AcDbLine
 62
7
  6
CONTINUOUS
 10
75.4664334772
 20
224.8355876007
 11
77.9413175153
 21
223.4067449599
  0
LINE
  5
282
100
AcDbEntity
  8
0
100
AcDbLine
 62
7
  6
CONTINUOUS
 10
149.854458405
 20
128.4079952747
 11
149.854458405
 21
91.6653865038
  0
LINE
  5
283
100
AcDbEntity
  8
0
100
AcDbLine
 62
7
  6
CONTINUOUS
 10
153.3900070307
 20
79.9894542091
 11
153.3900070307
 21
89.6241827312
  0
LINE
  5
284
100
AcDbEntity
  8
0
100
AcDbLine
 62
7
  6
CONTINUOUS
 10
153.3900070307
 20
126.3667915021
 11
153.3900070307
 21
136.0015200242
  0
LINE
  5
285
100
AcDbEntity
  8
0
100
AcDbLine
 62
7
  6
CONTINUOUS
 10
31.8026247789
 20
252.49383626
 11
33.7469596936
 21
251.3712993688
  0
LINE
  5
286
100
AcDbEntity
  8
0
100
AcDbLine
 62
7
  6
CONTINUOUS
 10
37.9896180444
 20
248.9218548417
 11
75.4664334772
 21
227.2850948521
  0
LINE
  5
287
100
AcDbEntity
  8
0
100
AcDbLine
 62
7
  6
CONTINUOUS
 10
85.9669796288
 20
222.692325074
 11
84.057783371
 21
223.7945751112
  0
LINE
  5
288
100
AcDbEntity
  8
0
100
AcDbLine
 62
7
  6
CONTINUOUS
 10
83.0626260829
 20
225.7571527787
 11
84.6588216326
 21
224.8356096965
  0
LINE
  5
289
100
AcDbEntity
  8
0
100
AcDbLine
 62
7
  6
CONTINUOUS
 10
82.1839375946
 20
228.7139595887
 11
84.6588216326
 21
227.2851169479
  0
LINE
  5
28A
100
AcDbEntity
  8
0
100
AcDbLine
 62
7
  6
CONTINUOUS
 10
160.4611042822
 20
75.9070466639
 11
160.4611042822
 21
131.919112479
  0
LINE
  5
28B
100
AcDbEntity
  8
0
100
AcDbLine
 62
7
  6
CONTINUOUS
 10
195.8162078239
 20
171.2739136189
 11
163.9965351492
 21
152.9029266947
  0
LINE
  5
28C
100
AcDbEntity
  8
0
100
AcDbLine
 62
7
  6
CONTINUOUS
 10
118.316964284
 20
217.6500526224
 11
118.6616339735
 21
217.509337996
  0
LINE
  5
28D
100
AcDbEntity
  8
0
100
AcDbLine
 62
7
  6
CONTINUOUS
 10
116.1956527723
 20
217.2418225779
 11
199.3517564496
 21
169.2327098463
  0
LINE
  5
28E
100
AcDbEntity
  8
0
100
AcDbLine
 62
7
  6
CONTINUOUS
 10
118.6615430785
 20
217.5091303068
 11
200.8161899296
 21
170.0781958633
  0
LINE
  5
28F
100
AcDbEntity
  8
0
100
AcDbLine
 62
7
  6
CONTINUOUS
 10
160.5473835873
 20
147.7259139511
 11
160.3724994295
 21
146.728159647
  0
LINE
  5
290
100
AcDbEntity
  8
0
100
AcDbLine
 62
7
  6
CONTINUOUS
 10
159.1882584959
 20
146.0444419064
 11
167.532083775
 21
150.8617229221
  0
LINE
  5
291
100
AcDbEntity
  8
0
100
AcDbLine
 62
7
  6
CONTINUOUS
 10
199.3517564496
 20
169.2327098463
 11
207.6955817287
 21
174.049990862
  0
LINE
  5
292
100
AcDbEntity
  8
0
100
AcDbLine
 62
7
  6
CONTINUOUS
 10
207.6955817287
 20
174.049990862
 11
214.7666789802
 21
169.9675833168
  0
LINE
  5
293
100
AcDbEntity
  8
0
100
AcDbLine
 62
7
  6
CONTINUOUS
 10
218.8666094154
 20
170.3737119702
 11
211.7955121639
 21
174.4561195154
  0
LINE
  5
294
100
AcDbEntity
  8
0
100
AcDbLine
 62
7
  6
CONTINUOUS
 10
153.3900070307
 20
134.6339799127
 11
152.6132862639
 21
133.9835779895
  0
LINE
  5
295
100
AcDbEntity
  8
0
100
AcDbLine
 62
7
  6
CONTINUOUS
 10
166.2593557473
 20
141.9620343612
 11
214.7666789802
 21
169.9675833168
  0
LINE
  5
296
100
AcDbEntity
  8
0
100
AcDbLine
 62
7
  6
CONTINUOUS
 10
118.423045757
 20
241.4307317367
 11
116.5138494991
 21
242.5329817739
  0
LINE
  5
297
100
AcDbEntity
  8
0
100
AcDbLine
 62
7
  6
CONTINUOUS
 10
115.9128112374
 20
245.329508549
 11
113.4379271994
 21
246.7583511898
  0
LINE
  5
298
100
AcDbEntity
  8
0
100
AcDbLine
 62
7
  6
CONTINUOUS
 10
115.9127729659
 20
250.6366604536
 11
111.1786131644
 21
253.3698670559
  0
LINE
  5
299
100
AcDbEntity
  8
0
100
AcDbLine
 62
7
  6
CONTINUOUS
 10
109.3330916303
 20
254.4353553059
 11
78.4359575331
 21
272.2734204432
  0
LINE
  5
29A
100
AcDbEntity
  8
0
100
AcDbLine
 62
7
  6
CONTINUOUS
 10
74.1932991822
 20
274.7228649703
 11
72.2489642675
 21
275.8454018615
  0
LINE
  5
29B
100
AcDbEntity
  8
0
100
AcDbLine
 62
7
  6
CONTINUOUS
 10
220.5649304454
 20
166.6198655581
 11
220.5649304454
 21
110.607799743
  0
LINE
  5
29C
100
AcDbEntity
  8
0
100
AcDbLine
 62
7
  6
CONTINUOUS
 10
214.7666789802
 20
100.5648778608
 11
166.2593557473
 21
72.5593289052
  0
ARC
  5
29D
100
AcDbEntity
  8
0
100
AcDbCircle
 62
7
  6
CONTINUOUS
 10
83.0997420424
 20
183.2790302425
 40
10.3599210556
100
AcDbArc
 50
329.9945174569
 51
333.725411002
  0
ARC
  5
29E
100
AcDbEntity
  8
0
100
AcDbCircle
 62
7
  6
CONTINUOUS
 10
70.3717669899
 20
190.6273638238
 40
10.3599210554
100
AcDbArc
 50
329.9945174632
 51
333.725411002
  0
ARC
  5
29F
100
AcDbEntity
  8
0
100
AcDbCircle
 62
7
  6
CONTINUOUS
 10
83.0987401961
 20
183.2772619887
 40
10.359904558
100
AcDbArc
 50
326.2748611175
 51
330.0057570138
  0
ARC
  5
2A0
100
AcDbEntity
  8
0
100
AcDbCircle
 62
7
  6
CONTINUOUS
 10
70.3707651434
 20
190.6255955701
 40
10.359904558
100
AcDbArc
 50
326.2748611175
 51
330.0057570201
  0
ARC
  5
2A1
100
AcDbEntity
  8
0
100
AcDbCircle
 62
7
  6
CONTINUOUS
 10
102.5066770215
 20
184.3207949847
 40
8.6353616227
100
AcDbArc
 50
146.3311741959
 51
153.7688580169
  0
ARC
  5
2A2
100
AcDbEntity
  8
0
100
AcDbCircle
 62
7
  6
CONTINUOUS
 10
89.7787019689
 20
191.6691285661
 40
8.6353616227
100
AcDbArc
 50
146.3311741939
 51
153.7688580169
  0
ARC
  5
2A3
100
AcDbEntity
  8
0
100
AcDbCircle
 62
7
  6
CONTINUOUS
 10
168.9749911853
 20
145.9461640598
 40
8.6353616226
100
AcDbArc
 50
146.3311741902
 51
153.768858017
  0
ARC
  5
2A4
100
AcDbEntity
  8
0
100
AcDbCircle
 62
7
  6
CONTINUOUS
 10
91.9001189469
 20
165.9496018061
 40
8.6353584879
100
AcDbArc
 50
146.2314161687
 51
153.6691026051
  0
ARC
  5
2A5
100
AcDbEntity
  8
0
100
AcDbCircle
 62
7
  6
CONTINUOUS
 10
79.1721438941
 20
173.2979353875
 40
8.6353584877
100
AcDbArc
 50
146.2314161686
 51
153.6691026176
  0
ARC
  5
2A6
100
AcDbEntity
  8
0
100
AcDbCircle
 62
7
  6
CONTINUOUS
 10
158.3684331105
 20
127.5749708813
 40
8.6353584877
100
AcDbArc
 50
146.2314161686
 51
153.6691026207
  0
ARC
  5
2A7
100
AcDbEntity
  8
0
100
AcDbCircle
 62
7
  6
CONTINUOUS
 10
80.0626290897
 20
225.6061492929
 40
5.1562245781
100
AcDbArc
 50
263.5258730156
 51
276.4737961813
  0
ARC
  5
2A8
100
AcDbEntity
  8
0
100
AcDbCircle
 62
7
  6
CONTINUOUS
 10
38.3388578104
 20
253.8072160014
 40
5.1068003702
100
AcDbArc
 50
266.0731906642
 51
266.277143794
  0
ARC
  5
2A9
100
AcDbEntity
  8
0
100
AcDbCircle
 62
7
  6
CONTINUOUS
 10
115.5635340443
 20
250.2148568826
 40
5.1067892128
100
AcDbArc
 50
273.7231339533
 51
273.9272435415
  0
ARC
  5
2AA
100
AcDbEntity
  8
0
100
AcDbCircle
 62
7
  6
CONTINUOUS
 10
38.3383970486
 20
253.8005879001
 40
5.1001562755
100
AcDbArc
 50
265.6065755672
 51
266.0732555269
  0
ARC
  5
2AB
100
AcDbEntity
  8
0
100
AcDbCircle
 62
7
  6
CONTINUOUS
 10
115.5639950605
 20
250.208225808
 40
5.1001421343
100
AcDbArc
 50
273.9271786808
 51
274.3938670824
  0
ARC
  5
2AC
100
AcDbEntity
  8
0
100
AcDbCircle
 62
7
  6
CONTINUOUS
 10
72.224123782
 20
270.7593084081
 40
1.4229332174
100
AcDbArc
 50
143.756465207
 51
147.9787180414
  0
SPLINE
  5
2AD
100
AcDbEntity
  8
0
100
AcDbSpline
 62
7
  6
CONTINUOUS
 70
0
 71
3
 72
14
 73
10
 74
0
 42
0.0000001
 43
0.0000001
 44
0.0000000001
 40
0.0
 40
0.0
 40
0.0
 40
0.0
 40
0.2892789009
 40
0.4225378026
 40
0.5484922095
 40
0.6678919368
 40
0.7818652052
 40
0.8919497102
 40
1.0
 40
1.0
 40
1.0
 40
1.0
 10
191.9272368141
 20
126.1624915219
 30
0.0
 10
192.2344997086
 20
126.3398887778
 30
0.0
 10
192.7062231234
 20
126.5644048242
 30
0.0
 10
193.3531482536
 20
126.7530449092
 30
0.0
 10
193.8123349616
 20
126.8300478889
 30
0.0
 10
194.2541689904
 20
126.8454491133
 30
0.0
 10
194.6744700277
 20
126.7985656984
 30
0.0
 10
195.0687300995
 20
126.6895316266
 30
0.0
 10
195.3124075017
 20
126.5754433877
 30
0.0
 10
195.4271758043
 20
126.5091838985
 30
0.0
  0
SPLINE
  5
2AE
100
AcDbEntity
  8
0
100
AcDbSpline
 62
7
  6
CONTINUOUS
 70
0
 71
3
 72
23
 73
19
 74
0
 42
0.0000001
 43
0.0000001
 44
0.0000000001
 40
0.0
 40
0.0
 40
0.0
 40
0.0
 40
0.0623917088
 40
0.1287423664
 40
0.1983450363
 40
0.2703325609
 40
0.3437219476
 40
0.4174665533
 40
0.4905033468
 40
0.5618018617
 40
0.6304104325
 40
0.6955086324
 40
0.7564661163
 40
0.8129125658
 40
0.8648215394
 40
0.9126041088
 40
0.9571857792
 40
1.0
 40
1.0
 40
1.0
 40
1.0
 10
211.7263091182
 20
103.3007165555
 30
0.0
 10
211.9778015684
 20
103.4459149226
 30
0.0
 10
212.4774171303
 20
103.7798002848
 30
0.0
 10
213.1849416771
 20
104.3752174777
 30
0.0
 10
213.8612591347
 20
105.0696242107
 30
0.0
 10
214.4919226275
 20
105.8481407649
 30
0.0
 10
215.0635686571
 20
106.6942653808
 30
0.0
 10
215.5640083898
 20
107.589932997
 30
0.0
 10
215.9825575465
 20
108.5160408083
 30
0.0
 10
216.3102964562
 20
109.4528493208
 30
0.0
 10
216.5402431288
 20
110.3804689233
 30
0.0
 10
216.6674725089
 20
111.2793268601
 30
0.0
 10
216.6891368693
 20
112.130640948
 30
0.0
 10
216.6043248834
 20
112.9168473253
 30
0.0
 10
216.4138410601
 20
113.6217863458
 30
0.0
 10
216.1196596175
 20
114.2305965258
 30
0.0
 10
215.7259709925
 20
114.7284138607
 30
0.0
 10
215.3988272878
 20
114.9788068265
 30
0.0
 10
215.2262482001
 20
115.0784429305
 30
0.0
  0
SPLINE
  5
2AF
100
AcDbEntity
  8
0
100
AcDbSpline
 62
7
  6
CONTINUOUS
 70
0
 71
3
 72
14
 73
10
 74
0
 42
0.0000001
 43
0.0000001
 44
0.0000000001
 40
0.0
 40
0.0
 40
0.0
 40
0.0
 40
0.1080488994
 40
0.2181322136
 40
0.3321045199
 40
0.4515036676
 40
0.5774576381
 40
0.7107171506
 40
1.0
 40
1.0
 40
1.0
 40
1.0
 10
208.2263700363
 20
102.9540240202
 30
0.0
 10
208.3411367
 20
102.8877651044
 30
0.0
 10
208.5848111742
 20
102.7736780545
 30
0.0
 10
208.9790667982
 20
102.66464457
 30
0.0
 10
209.3993642335
 20
102.6177594357
 30
0.0
 10
209.8411959056
 20
102.6331589795
 30
0.0
 10
210.3003824416
 20
102.7101597959
 30
0.0
 10
210.9473132784
 20
102.8987985484
 30
0.0
 10
211.4190420311
 20
103.123316879
 30
0.0
 10
211.7263091182
 20
103.3007165555
 30
0.0
  0
SPLINE
  5
2B0
100
AcDbEntity
  8
0
100
AcDbSpline
 62
7
  6
CONTINUOUS
 70
0
 71
3
 72
23
 73
19
 74
0
 42
0.0000001
 43
0.0000001
 44
0.0000000001
 40
0.0
 40
0.0
 40
0.0
 40
0.0
 40
0.0428149573
 40
0.087397439
 40
0.1351808424
 40
0.18709055
 40
0.2435375298
 40
0.3044952558
 40
0.3695933355
 40
0.4382013746
 40
0.5094990006
 40
0.5825347075
 40
0.65627821
 40
0.7296666882
 40
0.8016536915
 40
0.8712562004
 40
0.9376075061
 40
1.0
 40
1.0
 40
1.0
 40
1.0
 10
188.4272978238
 20
114.3847653054
 30
0.0
 10
188.2547155369
 20
114.4844026959
 30
0.0
 10
187.9275671169
 20
114.7348019565
 30
0.0
 10
187.5338748559
 20
115.2326306189
 30
0.0
 10
187.2396940228
 20
115.8414535372
 30
0.0
 10
187.0492140153
 20
116.5464036596
 30
0.0
 10
186.9644078151
 20
117.3326176513
 30
0.0
 10
186.9860783502
 20
118.1839345223
 30
0.0
 10
187.1133127866
 20
119.0827897073
 30
0.0
 10
187.3432620142
 20
120.0104011652
 30
0.0
 10
187.6710002546
 20
120.9471974187
 30
0.0
 10
188.0895455575
 20
121.8732911107
 30
0.0
 10
188.5899791662
 20
122.7689454814
 30
0.0
 10
189.1616184719
 20
123.6150602888
 30
0.0
 10
189.7922766961
 20
124.393571408
 30
0.0
 10
190.4685922265
 20
125.0879797131
 30
0.0
 10
191.1761208051
 20
125.6834012273
 30
0.0
 10
191.6757412169
 20
126.0172913379
 30
0.0
 10
191.9272368141
 20
126.1624915219
 30
0.0
  0
SPLINE
  5
2B1
100
AcDbEntity
  8
0
100
AcDbSpline
 62
7
  6
CONTINUOUS
 70
0
 71
3
 72
14
 73
10
 74
0
 42
0.0000001
 43
0.0000001
 44
0.0000000001
 40
0.0
 40
0.0
 40
0.0
 40
0.0
 40
0.1080488994
 40
0.2181322136
 40
0.3321045199
 40
0.4515036676
 40
0.5774576381
 40
0.7107171506
 40
1.0
 40
1.0
 40
1.0
 40
1.0
 10
215.2262482001
 20
115.0784429305
 30
0.0
 10
215.1114815363
 20
115.1447018464
 30
0.0
 10
214.8678070621
 20
115.2587888963
 30
0.0
 10
214.4735514381
 20
115.3678223808
 30
0.0
 10
214.0532540028
 20
115.4147075151
 30
0.0
 10
213.6114223307
 20
115.3993079713
 30
0.0
 10
213.1522357947
 20
115.3223071549
 30
0.0
 10
212.505304958
 20
115.1336684024
 30
0.0
 10
212.0335762053
 20
114.9091500718
 30
0.0
 10
211.7263091182
 20
114.7317503953
 30
0.0
  0
SPLINE
  5
2B2
100
AcDbEntity
  8
0
100
AcDbSpline
 62
7
  6
CONTINUOUS
 70
0
 71
3
 72
23
 73
19
 74
0
 42
0.0000001
 43
0.0000001
 44
0.0000000001
 40
0.0
 40
0.0
 40
0.0
 40
0.0
 40
0.0623917088
 40
0.1287423664
 40
0.1983450363
 40
0.2703325609
 40
0.3437219476
 40
0.4174665533
 40
0.4905033468
 40
0.5618018617
 40
0.6304104325
 40
0.6955086324
 40
0.7564661163
 40
0.8129125658
 40
0.8648215394
 40
0.9126041088
 40
0.9571857792
 40
1.0
 40
1.0
 40
1.0
 40
1.0
 10
211.7263091182
 20
114.7317503953
 30
0.0
 10
211.4748166679
 20
114.5865520281
 30
0.0
 10
210.9752011061
 20
114.252666666
 30
0.0
 10
210.2676765593
 20
113.6572494731
 30
0.0
 10
209.5913591017
 20
112.9628427401
 30
0.0
 10
208.9606956088
 20
112.1843261859
 30
0.0
 10
208.3890495793
 20
111.3382015699
 30
0.0
 10
207.8886098465
 20
110.4425339538
 30
0.0
 10
207.4700606898
 20
109.5164261425
 30
0.0
 10
207.1423217802
 20
108.5796176299
 30
0.0
 10
206.9123751076
 20
107.6519980274
 30
0.0
 10
206.7851457275
 20
106.7531400907
 30
0.0
 10
206.763481367
 20
105.9018260027
 30
0.0
 10
206.8482933529
 20
105.1156196254
 30
0.0
 10
207.0387771763
 20
104.410680605
 30
0.0
 10
207.3329586189
 20
103.801870425
 30
0.0
 10
207.7266472439
 20
103.30405309
 30
0.0
 10
208.0537909486
 20
103.0536601242
 30
0.0
 10
208.2263700363
 20
102.9540240202
 30
0.0
  0
SPLINE
  5
2B3
100
AcDbEntity
  8
0
100
AcDbSpline
 62
7
  6
CONTINUOUS
 70
0
 71
3
 72
11
 73
7
 74
0
 42
0.0000001
 43
0.0000001
 44
0.0000000001
 40
0.0
 40
0.0
 40
0.0
 40
0.0
 40
0.2898006839
 40
0.5490477601
 40
0.7822275063
 40
1.0
 40
1.0
 40
1.0
 40
1.0
 10
68.1172117339
 20
204.5427255806
 30
0.0
 10
68.2927894876
 20
204.4413580105
 30
0.0
 10
68.6418912458
 20
204.2751616631
 30
0.0
 10
69.1785988476
 20
204.1457396998
 30
0.0
 10
69.6820875783
 20
204.1583541406
 30
0.0
 10
69.985263832
 20
204.268455136
 30
0.0
 10
70.1171993094
 20
204.3446344737
 30
0.0
  0
SPLINE
  5
2B4
100
AcDbEntity
  8
0
100
AcDbSpline
 62
7
  6
CONTINUOUS
 70
0
 71
3
 72
15
 73
11
 74
0
 42
0.0000001
 43
0.0000001
 44
0.0000000001
 40
0.0
 40
0.0
 40
0.0
 40
0.0
 40
0.1148263591
 40
0.2383901443
 40
0.3681607991
 40
0.501083093
 40
0.6338551732
 40
0.7631866601
 40
0.8860576628
 40
1.0
 40
1.0
 40
1.0
 40
1.0
 10
39.0460258137
 20
224.5356128356
 30
0.0
 10
39.0493629477
 20
224.3129249357
 30
0.0
 10
39.0958428306
 20
223.8507745767
 30
0.0
 10
39.2645092163
 20
223.1550620002
 30
0.0
 10
39.5288021238
 20
222.452183275
 30
0.0
 10
39.8790517011
 20
221.7680105798
 30
0.0
 10
40.3024149654
 20
221.1275193457
 30
0.0
 10
40.7834728495
 20
220.5541333464
 30
0.0
 10
41.3044987568
 20
220.0688993415
 30
0.0
 10
41.6826427159
 20
219.8043858541
 30
0.0
 10
41.8740339294
 20
219.6938885853
 30
0.0
  0
SPLINE
  5
2B5
100
AcDbEntity
  8
0
100
AcDbSpline
 62
7
  6
CONTINUOUS
 70
0
 71
3
 72
11
 73
7
 74
0
 42
0.0000001
 43
0.0000001
 44
0.0000000001
 40
0.0
 40
0.0
 40
0.0
 40
0.0
 40
0.2887885927
 40
0.5476717144
 40
0.7812596444
 40
1.0
 40
1.0
 40
1.0
 40
1.0
 10
72.8544002101
 20
207.2212804265
 30
0.0
 10
72.8514024237
 20
207.0246987595
 30
0.0
 10
72.8160907089
 20
206.6510721264
 30
0.0
 10
72.6572480276
 20
206.1386065103
 30
0.0
 10
72.396996486
 20
205.722710196
 30
0.0
 10
72.1553423174
 20
205.5213565323
 30
0.0
 10
72.0263796692
 20
205.4468936904
 30
0.0
  0
SPLINE
  5
2B6
100
AcDbEntity
  8
0
100
AcDbSpline
 62
7
  6
CONTINUOUS
 70
0
 71
3
 72
11
 73
7
 74
0
 42
0.0000001
 43
0.0000001
 44
0.0000000001
 40
0.0
 40
0.0
 40
0.0
 40
0.0
 40
0.2187403653
 40
0.4523283028
 40
0.7112114152
 40
1.0
 40
1.0
 40
1.0
 40
1.0
 10
70.1171993094
 20
204.3446344737
 30
0.0
 10
70.2461619684
 20
204.4190973106
 30
0.0
 10
70.4878161415
 20
204.6204509934
 30
0.0
 10
70.7480676755
 20
205.0363473165
 30
0.0
 10
70.9069103557
 20
205.5488129268
 30
0.0
 10
70.9422220633
 20
205.9224395492
 30
0.0
 10
70.9452198496
 20
206.119021211
 30
0.0
  0
SPLINE
  5
2B7
100
AcDbEntity
  8
0
100
AcDbSpline
 62
7
  6
CONTINUOUS
 70
0
 71
3
 72
15
 73
11
 74
0
 42
0.0000001
 43
0.0000001
 44
0.0000000001
 40
0.0
 40
0.0
 40
0.0
 40
0.0
 40
0.113942031
 40
0.2368128637
 40
0.3661442943
 40
0.4989164145
 40
0.6318388157
 40
0.7616096149
 40
0.8851735401
 40
1.0
 40
1.0
 40
1.0
 40
1.0
 10
115.3164923349
 20
217.9998589343
 30
0.0
 10
115.5078821214
 20
218.1103572195
 30
0.0
 10
115.8860231644
 20
218.3748727596
 30
0.0
 10
116.4070446795
 20
218.8601093024
 30
0.0
 10
116.8880984891
 20
219.4334976285
 30
0.0
 10
117.3114581525
 20
220.0739908677
 30
0.0
 10
117.6617047362
 20
220.758165179
 30
0.0
 10
117.9259953624
 20
221.4610450543
 30
0.0
 10
118.0946602945
 20
222.1567582711
 30
0.0
 10
118.1411397955
 20
222.6189088189
 30
0.0
 10
118.1444769024
 20
222.8415967799
 30
0.0
  0
SPLINE
  5
2B8
100
AcDbEntity
  8
0
100
AcDbSpline
 62
7
  6
CONTINUOUS
 70
0
 71
3
 72
11
 73
7
 74
0
 42
0.0000001
 43
0.0000001
 44
0.0000000001
 40
0.0
 40
0.0
 40
0.0
 40
0.0
 40
0.2177721143
 40
0.450951665
 40
0.7101988429
 40
1.0
 40
1.0
 40
1.0
 40
1.0
 10
87.0735704563
 20
202.6504642404
 30
0.0
 10
87.2055047077
 20
202.5742868705
 30
0.0
 10
87.5086779363
 20
202.4641896677
 30
0.0
 10
88.0121605646
 20
202.451579686
 30
0.0
 10
88.5488610519
 20
202.5810046895
 30
0.0
 10
88.8979577933
 20
202.7472019512
 30
0.0
 10
89.0735330509
 20
202.8485697684
 30
0.0
  0
SPLINE
  5
2B9
100
AcDbEntity
  8
0
100
AcDbSpline
 62
7
  6
CONTINUOUS
 70
0
 71
3
 72
11
 73
7
 74
0
 42
0.0000001
 43
0.0000001
 44
0.0000000001
 40
0.0
 40
0.0
 40
0.0
 40
0.0
 40
0.2187395274
 40
0.4523270716
 40
0.7112104613
 40
1.0
 40
1.0
 40
1.0
 40
1.0
 10
85.1643741976
 20
203.7527142763
 30
0.0
 10
85.0354113358
 20
203.8271759876
 30
0.0
 10
84.7937564485
 20
204.0285283546
 30
0.0
 10
84.5335044925
 20
204.4444244793
 30
0.0
 10
84.3746616595
 20
204.9568913584
 30
0.0
 10
84.3393500007
 20
205.3305192873
 30
0.0
 10
84.3363522255
 20
205.5271018408
 30
0.0
  0
SPLINE
  5
2BA
100
AcDbEntity
  8
0
100
AcDbSpline
 62
7
  6
CONTINUOUS
 70
0
 71
3
 72
11
 73
7
 74
0
 42
0.0000001
 43
0.0000001
 44
0.0000000001
 40
0.0
 40
0.0
 40
0.0
 40
0.0
 40
0.2887895466
 40
0.5476729455
 40
0.7812604823
 40
1.0
 40
1.0
 40
1.0
 40
1.0
 10
86.2455484834
 20
204.4248518035
 30
0.0
 10
86.2485462586
 20
204.2282692449
 30
0.0
 10
86.2838579247
 20
203.8546413053
 30
0.0
 10
86.4427007588
 20
203.3421744205
 30
0.0
 10
86.7029527224
 20
202.9262783045
 30
0.0
 10
86.9446076052
 20
202.7249259567
 30
0.0
 10
87.0735704563
 20
202.6504642404
 30
0.0
  0
SPLINE
  5
2BB
100
AcDbEntity
  8
0
100
AcDbSpline
 62
7
  6
CONTINUOUS
 70
0
 71
3
 72
11
 73
7
 74
0
 42
0.0000001
 43
0.0000001
 44
0.0000000001
 40
0.0
 40
0.0
 40
0.0
 40
0.0
 40
0.2368169205
 40
0.4825917025
 40
0.7371052518
 40
1.0
 40
1.0
 40
1.0
 40
1.0
 10
30.6442748092
 20
248.2635802947
 30
0.0
 10
29.9240578062
 20
242.9507794403
 30
0.0
 10
28.8430107157
 20
232.068849831
 30
0.0
 10
28.2743888919
 20
215.3805961768
 30
0.0
 10
28.7299231445
 20
198.0989771762
 30
0.0
 10
29.6998218302
 20
186.4185314466
 30
0.0
 10
30.347243757
 20
180.5020662679
 30
0.0
  0
SPLINE
  5
2BC
100
AcDbEntity
  8
0
100
AcDbSpline
 62
7
  6
CONTINUOUS
 70
0
 71
3
 72
15
 73
11
 74
0
 42
0.0000001
 43
0.0000001
 44
0.0000000001
 40
0.0
 40
0.0
 40
0.0
 40
0.0
 40
0.122681148
 40
0.2568619433
 40
0.397426131
 40
0.5383207409
 40
0.6734720337
 40
0.7372546802
 40
0.797743823
 40
1.0
 40
1.0
 40
1.0
 40
1.0
 10
75.9610941028
 20
270.8445659046
 30
0.0
 10
75.7685824048
 20
270.7334198874
 30
0.0
 10
75.3380589485
 20
270.5472092259
 30
0.0
 10
74.634769425
 20
270.3799123595
 30
0.0
 10
73.8812746065
 20
270.3187712625
 30
0.0
 10
73.1253044941
 20
270.3679881651
 30
0.0
 10
72.5212779734
 20
270.5005196336
 30
0.0
 10
72.0782260192
 20
270.6615141018
 30
0.0
 10
71.5463086249
 20
270.9142230709
 30
0.0
 10
71.1457120395
 20
271.2356210491
 30
0.0
 10
70.9730326831
 20
271.5588688472
 30
0.0
  0
SPLINE
  5
2BD
100
AcDbEntity
  8
0
100
AcDbSpline
 62
7
  6
CONTINUOUS
 70
0
 71
3
 72
9
 73
5
 74
0
 42
0.0000001
 43
0.0000001
 44
0.0000000001
 40
0.0
 40
0.0
 40
0.0
 40
0.0
 40
0.5104125976
 40
1.0
 40
1.0
 40
1.0
 40
1.0
 10
70.9730326831
 20
271.5588688472
 30
0.0
 10
70.9304173944
 20
271.638642704
 30
0.0
 10
70.8633204862
 20
271.8046342019
 30
0.0
 10
70.8397981794
 20
271.9825353323
 30
0.0
 10
70.8397828371
 20
272.069288165
 30
0.0
  0
SPLINE
  5
2BE
100
AcDbEntity
  8
0
100
AcDbSpline
 62
7
  6
CONTINUOUS
 70
0
 71
3
 72
11
 73
7
 74
0
 42
0.0000001
 43
0.0000001
 44
0.0000000001
 40
0.0
 40
0.0
 40
0.0
 40
0.0
 40
0.2897781767
 40
0.5490726313
 40
0.7822276909
 40
1.0
 40
1.0
 40
1.0
 40
1.0
 10
113.4379271994
 20
246.7583511898
 30
0.0
 10
113.3062548385
 20
246.8343705431
 30
0.0
 10
113.0673993217
 20
246.998815643
 30
0.0
 10
112.7820279636
 20
247.2988472217
 30
0.0
 10
112.6014584497
 20
247.6306384146
 30
0.0
 10
112.5592607649
 20
247.8688225213
 30
0.0
 10
112.5592607634
 20
247.9830836515
 30
0.0
  0
SPLINE
  5
2BF
100
AcDbEntity
  8
0
100
AcDbSpline
 62
7
  6
CONTINUOUS
 70
0
 71
3
 72
10
 73
6
 74
0
 42
0.0000001
 43
0.0000001
 44
0.0000000001
 40
0.0
 40
0.0
 40
0.0
 40
0.0
 40
0.4588857921
 40
0.7187804199
 40
1.0
 40
1.0
 40
1.0
 40
1.0
 10
76.7727853597
 20
271.2900567997
 30
0.0
 10
76.7086232157
 20
271.4624113309
 30
0.0
 10
76.5406348613
 20
271.7085763098
 30
0.0
 10
76.2404461426
 20
271.9745077772
 30
0.0
 10
76.0586830489
 20
272.0945653182
 30
0.0
 10
75.961076439
 20
272.1509172458
 30
0.0
  0
SPLINE
  5
2C0
100
AcDbEntity
  8
0
100
AcDbSpline
 62
7
  6
CONTINUOUS
 70
0
 71
3
 72
11
 73
7
 74
0
 42
0.0000001
 43
0.0000001
 44
0.0000000001
 40
0.0
 40
0.0
 40
0.0
 40
0.0
 40
0.2897733512
 40
0.5490657165
 40
0.7822241652
 40
1.0
 40
1.0
 40
1.0
 40
1.0
 10
36.2218231238
 20
251.6570505234
 30
0.0
 10
36.0901547651
 20
251.5810322148
 30
0.0
 10
35.8513041498
 20
251.4165914457
 30
0.0
 10
35.5659370366
 20
251.1165642052
 30
0.0
 10
35.3853644561
 20
250.7847758554
 30
0.0
 10
35.3431663129
 20
250.5465901452
 30
0.0
 10
35.3431663143
 20
250.4323282598
 30
0.0
  0
SPLINE
  5
2C1
100
AcDbEntity
  8
0
100
AcDbSpline
 62
7
  6
CONTINUOUS
 70
0
 71
3
 72
11
 73
7
 74
0
 42
0.0000001
 43
0.0000001
 44
0.0000000001
 40
0.0
 40
0.0
 40
0.0
 40
0.0
 40
0.2228964003
 40
0.4583021121
 40
0.7156030448
 40
1.0
 40
1.0
 40
1.0
 40
1.0
 10
119.2663234399
 20
245.5335780997
 30
0.0
 10
119.2663234386
 20
245.6342830525
 30
0.0
 10
119.2340588728
 20
245.8425002318
 30
0.0
 10
119.0940038566
 20
246.1379793903
 30
0.0
 10
118.8696887973
 20
246.4117262329
 30
0.0
 10
118.6788840387
 20
246.567415116
 30
0.0
 10
118.5733594384
 20
246.6407260733
 30
0.0
  0
SPLINE
  5
2C2
100
AcDbEntity
  8
0
100
AcDbSpline
 62
7
  6
CONTINUOUS
 70
0
 71
3
 72
11
 73
7
 74
0
 42
0.0000001
 43
0.0000001
 44
0.0000000001
 40
0.0
 40
0.0
 40
0.0
 40
0.0
 40
0.2897733512
 40
0.5490657165
 40
0.7822241652
 40
1.0
 40
1.0
 40
1.0
 40
1.0
 10
77.9412969075
 20
227.5708460067
 30
0.0
 10
77.8096285488
 20
227.4948276981
 30
0.0
 10
77.5707779335
 20
227.330386929
 30
0.0
 10
77.2854108203
 20
227.0303596885
 30
0.0
 10
77.1048382398
 20
226.6985713387
 30
0.0
 10
77.0626400965
 20
226.4603856285
 30
0.0
 10
77.062640098
 20
226.3461237431
 30
0.0
  0
SPLINE
  5
2C3
100
AcDbEntity
  8
0
100
AcDbSpline
 62
7
  6
CONTINUOUS
 70
0
 71
3
 72
11
 73
7
 74
0
 42
0.0000001
 43
0.0000001
 44
0.0000000001
 40
0.0
 40
0.0
 40
0.0
 40
0.0
 40
0.2177727701
 40
0.4509280213
 40
0.7102223029
 40
1.0
 40
1.0
 40
1.0
 40
1.0
 10
119.2663234399
 20
243.0840708484
 30
0.0
 10
119.2663234413
 20
242.9698109482
 30
0.0
 10
119.2241267201
 20
242.7316295897
 30
0.0
 10
119.0435611125
 20
242.3998416093
 30
0.0
 10
118.7581955501
 20
242.0998122545
 30
0.0
 10
118.5193445663
 20
241.9353677825
 30
0.0
 10
118.3876746677
 20
241.8593485848
 30
0.0
  0
SPLINE
  5
2C4
100
AcDbEntity
  8
0
100
AcDbSpline
 62
7
  6
CONTINUOUS
 70
0
 71
3
 72
11
 73
7
 74
0
 42
0.0000001
 43
0.0000001
 44
0.0000000001
 40
0.0
 40
0.0
 40
0.0
 40
0.0
 40
0.2372251801
 40
0.5000005261
 40
0.7627755858
 40
1.0
 40
1.0
 40
1.0
 40
1.0
 10
117.6805502227
 20
248.0647127291
 30
0.0
 10
117.3794000071
 20
248.2385779538
 30
0.0
 10
116.6790440522
 20
248.4923242869
 30
0.0
 10
115.559226544
 20
248.6138722343
 30
0.0
 10
114.4394107254
 20
248.4923191766
 30
0.0
 10
113.7390575251
 20
248.238569366
 30
0.0
 10
113.4379095356
 20
248.064702531
 30
0.0
  0
SPLINE
  5
2C5
100
AcDbEntity
  8
0
100
AcDbSpline
 62
7
  6
CONTINUOUS
 70
0
 71
3
 72
11
 73
7
 74
0
 42
0.0000001
 43
0.0000001
 44
0.0000000001
 40
0.0
 40
0.0
 40
0.0
 40
0.0
 40
0.2372279391
 40
0.4999994739
 40
0.762771295
 40
1.0
 40
1.0
 40
1.0
 40
1.0
 10
82.1839582023
 20
220.9572479066
 30
0.0
 10
81.8828059171
 20
220.7833785915
 30
0.0
 10
81.1824507123
 20
220.529633979
 30
0.0
 10
80.062641194
 20
220.4080844155
 30
0.0
 10
78.942829986
 20
220.5296288688
 30
0.0
 10
78.2424720266
 20
220.7833700037
 30
0.0
 10
77.9413175153
 20
220.9572377085
 30
0.0
  0
SPLINE
  5
2C6
100
AcDbEntity
  8
0
100
AcDbSpline
 62
7
  6
CONTINUOUS
 70
0
 71
3
 72
11
 73
7
 74
0
 42
0.0000001
 43
0.0000001
 44
0.0000000001
 40
0.0
 40
0.0
 40
0.0
 40
0.0
 40
0.2177753738
 40
0.4509336309
 40
0.7102261693
 40
1.0
 40
1.0
 40
1.0
 40
1.0
 10
118.559224696
 20
246.8399802675
 30
0.0
 10
118.5592246945
 20
246.954243383
 30
0.0
 10
118.5170255878
 20
247.1924318413
 30
0.0
 10
118.3364491009
 20
247.5242234037
 30
0.0
 10
118.0510761919
 20
247.8242528681
 30
0.0
 10
117.8122210436
 20
247.988694265
 30
0.0
 10
117.6805502227
 20
248.0647127291
 30
0.0
  0
SPLINE
  5
2C7
100
AcDbEntity
  8
0
100
AcDbSpline
 62
7
  6
CONTINUOUS
 70
0
 71
3
 72
11
 73
7
 74
0
 42
0.0000001
 43
0.0000001
 44
0.0000000001
 40
0.0
 40
0.0
 40
0.0
 40
0.0
 40
0.2177753738
 40
0.4509336309
 40
0.7102261693
 40
1.0
 40
1.0
 40
1.0
 40
1.0
 10
83.0626120679
 20
226.3461237431
 30
0.0
 10
83.0626120664
 20
226.4603868586
 30
0.0
 10
83.0204129597
 20
226.698575317
 30
0.0
 10
82.8398364728
 20
227.0303668793
 30
0.0
 10
82.5544635637
 20
227.3303963437
 30
0.0
 10
82.3156084155
 20
227.4948377406
 30
0.0
 10
82.1839375946
 20
227.5708562047
 30
0.0
  0
SPLINE
  5
2C8
100
AcDbEntity
  8
0
100
AcDbSpline
 62
7
  6
CONTINUOUS
 70
0
 71
3
 72
11
 73
7
 74
0
 42
0.0000001
 43
0.0000001
 44
0.0000000001
 40
0.0
 40
0.0
 40
0.0
 40
0.0
 40
0.2177796924
 40
0.4509239527
 40
0.7102593987
 40
1.0
 40
1.0
 40
1.0
 40
1.0
 10
41.3431343895
 20
251.575431647
 30
0.0
 10
41.3431545969
 20
251.461168546
 30
0.0
 10
41.3008992053
 20
251.2229967905
 30
0.0
 10
41.1203695632
 20
250.8911783649
 30
0.0
 10
40.8349695721
 20
250.5911795191
 30
0.0
 10
40.596134023
 20
250.4267185607
 30
0.0
 10
40.4644814747
 20
250.3507093803
 30
0.0
  0
SPLINE
  5
2C9
100
AcDbEntity
  8
0
100
AcDbSpline
 62
7
  6
CONTINUOUS
 70
0
 71
3
 72
11
 73
7
 74
0
 42
0.0000001
 43
0.0000001
 44
0.0000000001
 40
0.0
 40
0.0
 40
0.0
 40
0.0
 40
0.2372251801
 40
0.5000005261
 40
0.7627755858
 40
1.0
 40
1.0
 40
1.0
 40
1.0
 10
75.961076439
 20
272.1509172458
 30
0.0
 10
75.6599262235
 20
272.3247824705
 30
0.0
 10
74.9595702685
 20
272.5785288036
 30
0.0
 10
73.8397527603
 20
272.700076751
 30
0.0
 10
72.7199369417
 20
272.5785236933
 30
0.0
 10
72.0195837414
 20
272.3247738827
 30
0.0
 10
71.7184357519
 20
272.1509070477
 30
0.0
  0
SPLINE
  5
2CA
100
AcDbEntity
  8
0
100
AcDbSpline
 62
7
  6
CONTINUOUS
 70
0
 71
3
 72
11
 73
7
 74
0
 42
0.0000001
 43
0.0000001
 44
0.0000000001
 40
0.0
 40
0.0
 40
0.0
 40
0.0
 40
0.2897733512
 40
0.5490657165
 40
0.7822241652
 40
1.0
 40
1.0
 40
1.0
 40
1.0
 10
104.8111926742
 20
254.0251074191
 30
0.0
 10
104.6356348626
 20
253.9237496743
 30
0.0
 10
104.3171673755
 20
253.7044953155
 30
0.0
 10
103.9366778912
 20
253.3044589948
 30
0.0
 10
103.6959144505
 20
252.8620745284
 30
0.0
 10
103.6396502596
 20
252.5444935815
 30
0.0
 10
103.6396502615
 20
252.392144401
 30
0.0
  0
SPLINE
  5
2CB
100
AcDbEntity
  8
0
100
AcDbSpline
 62
7
  6
CONTINUOUS
 70
0
 71
3
 72
13
 73
9
 74
0
 42
0.0000001
 43
0.0000001
 44
0.0000000001
 40
0.0
 40
0.0
 40
0.0
 40
0.0
 40
0.1142466307
 40
0.237544229
 40
0.5000005226
 40
0.7624565301
 40
0.8857537943
 40
1.0
 40
1.0
 40
1.0
 40
1.0
 10
110.4680469236
 20
254.0251210165
 30
0.0
 10
110.2744349749
 20
254.1369003984
 30
0.0
 10
109.8509943046
 20
254.3340919203
 30
0.0
 10
108.9125528477
 20
254.6191072626
 30
0.0
 10
107.6396153679
 20
254.7575625728
 30
0.0
 10
106.3666791122
 20
254.6191013771
 30
0.0
 10
105.4282411721
 20
254.3340814184
 30
0.0
 10
105.0048030965
 20
254.1368877813
 30
0.0
 10
104.8111926742
 20
254.0251074191
 30
0.0
  0
SPLINE
  5
2CC
100
AcDbEntity
  8
0
100
AcDbSpline
 62
7
  6
CONTINUOUS
 70
0
 71
3
 72
11
 73
7
 74
0
 42
0.0000001
 43
0.0000001
 44
0.0000000001
 40
0.0
 40
0.0
 40
0.0
 40
0.0
 40
0.2177753738
 40
0.4509336309
 40
0.7102261693
 40
1.0
 40
1.0
 40
1.0
 40
1.0
 10
111.639612888
 20
252.392144401
 30
0.0
 10
111.639612886
 20
252.5444952216
 30
0.0
 10
111.5833474104
 20
252.8620798328
 30
0.0
 10
111.3425787612
 20
253.3044685826
 30
0.0
 10
110.9620815492
 20
253.7045078684
 30
0.0
 10
110.6436080182
 20
253.9237630643
 30
0.0
 10
110.4680469236
 20
254.0251210165
 30
0.0
  0
SPLINE
  5
2CD
100
AcDbEntity
  8
0
100
AcDbSpline
 62
7
  6
CONTINUOUS
 70
0
 71
3
 72
17
 73
13
 74
0
 42
0.0000001
 43
0.0000001
 44
0.0000000001
 40
0.0
 40
0.0
 40
0.0
 40
0.0
 40
0.1286923651
 40
0.2702770074
 40
0.417433908
 40
0.5617794078
 40
0.6954504941
 40
0.8127129393
 40
0.8646788001
 40
0.9125109544
 40
0.9571403961
 40
1.0
 40
1.0
 40
1.0
 40
1.0
 10
36.2218231238
 20
252.8001539074
 30
0.0
 10
36.4439007049
 20
252.9283696933
 30
0.0
 10
36.9467031108
 20
253.1358323603
 30
0.0
 10
37.7661800415
 20
253.299754282
 30
0.0
 10
38.6329186052
 20
253.3237683667
 30
0.0
 10
39.4761954964
 20
253.2052805557
 30
0.0
 10
40.2276504533
 20
252.9542997885
 30
0.0
 10
40.7502276612
 20
252.6361291626
 30
0.0
 10
41.0569940108
 20
252.3283694682
 30
0.0
 10
41.2198563676
 20
252.0886726095
 30
0.0
 10
41.320320536
 20
251.8359130334
 30
0.0
 10
41.3431192861
 20
251.6608337966
 30
0.0
 10
41.3431343895
 20
251.575431647
 30
0.0
  0
SPLINE
  5
2CE
100
AcDbEntity
  8
0
100
AcDbSpline
 62
7
  6
CONTINUOUS
 70
0
 71
3
 72
11
 73
7
 74
0
 42
0.0000001
 43
0.0000001
 44
0.0000000001
 40
0.0
 40
0.0
 40
0.0
 40
0.0
 40
0.2372251801
 40
0.5000005261
 40
0.7627755858
 40
1.0
 40
1.0
 40
1.0
 40
1.0
 10
82.1839375946
 20
227.5708562047
 30
0.0
 10
81.882787379
 20
227.7447214294
 30
0.0
 10
81.1824314241
 20
227.9984677625
 30
0.0
 10
80.0626139158
 20
228.12001571
 30
0.0
 10
78.9427980972
 20
227.9984626523
 30
0.0
 10
78.2424448969
 20
227.7447128416
 30
0.0
 10
77.9412969075
 20
227.5708460067
 30
0.0
  0
SPLINE
  5
2CF
100
AcDbEntity
  8
0
100
AcDbSpline
 62
7
  6
CONTINUOUS
 70
0
 71
3
 72
11
 73
7
 74
0
 42
0.0000001
 43
0.0000001
 44
0.0000000001
 40
0.0
 40
0.0
 40
0.0
 40
0.0
 40
0.2897733512
 40
0.5490657165
 40
0.7822241652
 40
1.0
 40
1.0
 40
1.0
 40
1.0
 10
82.1839552584
 20
225.1214014796
 30
0.0
 10
82.3156236171
 20
225.1974197881
 30
0.0
 10
82.5544742324
 20
225.3618605572
 30
0.0
 10
82.8398413456
 20
225.6618877978
 30
0.0
 10
83.0204139261
 20
225.9936761476
 30
0.0
 10
83.0626120693
 20
226.2318618577
 30
0.0
 10
83.0626120679
 20
226.3461237431
 30
0.0
  0
SPLINE
  5
2D0
100
AcDbEntity
  8
0
100
AcDbSpline
 62
7
  6
CONTINUOUS
 70
0
 71
3
 72
11
 73
7
 74
0
 42
0.0000001
 43
0.0000001
 44
0.0000000001
 40
0.0
 40
0.0
 40
0.0
 40
0.0
 40
0.2372251801
 40
0.5000005261
 40
0.7627755858
 40
1.0
 40
1.0
 40
1.0
 40
1.0
 10
77.9413145713
 20
225.1213912815
 30
0.0
 10
78.2424647868
 20
224.9475260569
 30
0.0
 10
78.9428207418
 20
224.6937797238
 30
0.0
 10
80.06263825
 20
224.5722317763
 30
0.0
 10
81.1824540686
 20
224.693784834
 30
0.0
 10
81.8828072689
 20
224.9475346446
 30
0.0
 10
82.1839552584
 20
225.1214014796
 30
0.0
  0
SPLINE
  5
2D1
100
AcDbEntity
  8
0
100
AcDbSpline
 62
7
  6
CONTINUOUS
 70
0
 71
3
 72
11
 73
7
 74
0
 42
0.0000001
 43
0.0000001
 44
0.0000000001
 40
0.0
 40
0.0
 40
0.0
 40
0.0
 40
0.2177796924
 40
0.4509239527
 40
0.7102593987
 40
1.0
 40
1.0
 40
1.0
 40
1.0
 10
70.8397828371
 20
272.069288165
 30
0.0
 10
70.8397626297
 20
272.183551266
 30
0.0
 10
70.8820180213
 20
272.4217230215
 30
0.0
 10
71.0625476635
 20
272.753541447
 30
0.0
 10
71.3479476546
 20
273.0535402929
 30
0.0
 10
71.5867832037
 20
273.2180012512
 30
0.0
 10
71.7184357519
 20
273.2940104317
 30
0.0
  0
SPLINE
  5
2D2
100
AcDbEntity
  8
0
100
AcDbSpline
 62
7
  6
CONTINUOUS
 70
0
 71
3
 72
17
 73
13
 74
0
 42
0.0000001
 43
0.0000001
 44
0.0000000001
 40
0.0
 40
0.0
 40
0.0
 40
0.0
 40
0.1286902347
 40
0.2702748016
 40
0.4174293138
 40
0.5617764465
 40
0.6954484688
 40
0.8127147336
 40
0.8646780237
 40
0.9125120584
 40
0.9571415929
 40
1.0
 40
1.0
 40
1.0
 40
1.0
 10
110.4680704754
 20
247.901422923
 30
0.0
 10
110.171971611
 20
247.7304711844
 30
0.0
 10
109.5015713301
 20
247.4538631766
 30
0.0
 10
108.4089518978
 20
247.2352768676
 30
0.0
 10
107.2533019788
 20
247.2032512936
 30
0.0
 10
106.1289246886
 20
247.3612460427
 30
0.0
 10
105.1269992104
 20
247.6959279591
 30
0.0
 10
104.4301441244
 20
248.1200712574
 30
0.0
 10
104.0212093626
 20
248.5305061056
 30
0.0
 10
103.8039735691
 20
248.8500440074
 30
0.0
 10
103.6700840814
 20
249.1870872563
 30
0.0
 10
103.6396637909
 20
249.4205194649
 30
0.0
 10
103.6396611068
 20
249.5343859446
 30
0.0
  0
SPLINE
  5
2D3
100
AcDbEntity
  8
0
100
AcDbSpline
 62
7
  6
CONTINUOUS
 70
0
 71
3
 72
11
 73
7
 74
0
 42
0.0000001
 43
0.0000001
 44
0.0000000001
 40
0.0
 40
0.0
 40
0.0
 40
0.0
 40
0.2897776971
 40
0.5490719787
 40
0.7822272299
 40
1.0
 40
1.0
 40
1.0
 40
1.0
 10
118.3876746677
 20
244.3088558362
 30
0.0
 10
118.5193445663
 20
244.3848750338
 30
0.0
 10
118.7581955501
 20
244.5493195059
 30
0.0
 10
119.0435611125
 20
244.8493488607
 30
0.0
 10
119.2241267201
 20
245.1811368411
 30
0.0
 10
119.2663234413
 20
245.4193181996
 30
0.0
 10
119.2663234399
 20
245.5335780997
 30
0.0
  0
SPLINE
  5
2D4
100
AcDbEntity
  8
0
100
AcDbSpline
 62
7
  6
CONTINUOUS
 70
0
 71
3
 72
9
 73
5
 74
0
 42
0.0000001
 43
0.0000001
 44
0.0000000001
 40
0.0
 40
0.0
 40
0.0
 40
0.0
 40
0.4750938762
 40
1.0
 40
1.0
 40
1.0
 40
1.0
 10
117.6805678865
 20
244.3088541365
 30
0.0
 10
117.42730038
 20
244.1626309463
 30
0.0
 10
116.8473486315
 20
243.9350731641
 30
0.0
 10
116.2356822988
 20
243.8357946452
 30
0.0
 10
115.9133311773
 20
243.8136625911
 30
0.0
  0
SPLINE
  5
2D5
100
AcDbEntity
  8
0
100
AcDbSpline
 62
7
  6
CONTINUOUS
 70
0
 71
3
 72
11
 73
7
 74
0
 42
0.0000001
 43
0.0000001
 44
0.0000000001
 40
0.0
 40
0.0
 40
0.0
 40
0.0
 40
0.2897733512
 40
0.5490657165
 40
0.7822241652
 40
1.0
 40
1.0
 40
1.0
 40
1.0
 10
117.6805678865
 20
245.6152580039
 30
0.0
 10
117.8122362452
 20
245.6912763125
 30
0.0
 10
118.0510868605
 20
245.8557170816
 30
0.0
 10
118.3364539737
 20
246.1557443221
 30
0.0
 10
118.5170265542
 20
246.4875326719
 30
0.0
 10
118.5592246975
 20
246.7257183821
 30
0.0
 10
118.559224696
 20
246.8399802675
 30
0.0
  0
SPLINE
  5
2D6
100
AcDbEntity
  8
0
100
AcDbSpline
 62
7
  6
CONTINUOUS
 70
0
 71
3
 72
9
 73
5
 74
0
 42
0.0000001
 43
0.0000001
 44
0.0000000001
 40
0.0
 40
0.0
 40
0.0
 40
0.0
 40
0.5247613351
 40
1.0
 40
1.0
 40
1.0
 40
1.0
 10
115.9547286978
 20
245.1230732031
 30
0.0
 10
116.2696002862
 20
245.1472677832
 30
0.0
 10
116.8668398215
 20
245.2481179656
 30
0.0
 10
117.4328866949
 20
245.4722600549
 30
0.0
 10
117.6805678865
 20
245.6152580039
 30
0.0
  0
SPLINE
  5
2D7
100
AcDbEntity
  8
0
100
AcDbSpline
 62
7
  6
CONTINUOUS
 70
0
 71
3
 72
9
 73
5
 74
0
 42
0.0000001
 43
0.0000001
 44
0.0000000001
 40
0.0
 40
0.0
 40
0.0
 40
0.0
 40
0.2744293402
 40
1.0
 40
1.0
 40
1.0
 40
1.0
 10
113.4379095356
 20
248.064702531
 30
0.0
 10
113.3623467634
 20
248.0210766045
 30
0.0
 10
113.095036316
 20
247.8499385671
 30
0.0
 10
112.8581045935
 20
247.6218230058
 30
0.0
 10
112.7361666301
 20
247.4259958491
 30
0.0
  0
SPLINE
  5
2D8
100
AcDbEntity
  8
0
100
AcDbSpline
 62
7
  6
CONTINUOUS
 70
0
 71
3
 72
11
 73
7
 74
0
 42
0.0000001
 43
0.0000001
 44
0.0000000001
 40
0.0
 40
0.0
 40
0.0
 40
0.0
 40
0.2177727701
 40
0.4509280213
 40
0.7102223029
 40
1.0
 40
1.0
 40
1.0
 40
1.0
 10
112.5592607634
 20
247.9830836515
 30
0.0
 10
112.559260762
 20
248.0973435516
 30
0.0
 10
112.6014574832
 20
248.3355249101
 30
0.0
 10
112.7820230908
 20
248.6673128905
 30
0.0
 10
113.0673886532
 20
248.9673422453
 30
0.0
 10
113.306239637
 20
249.1317867174
 30
0.0
 10
113.4379095356
 20
249.207805915
 30
0.0
  0
SPLINE
  5
2D9
100
AcDbEntity
  8
0
100
AcDbSpline
 62
7
  6
CONTINUOUS
 70
0
 71
3
 72
11
 73
7
 74
0
 42
0.0000001
 43
0.0000001
 44
0.0000000001
 40
0.0
 40
0.0
 40
0.0
 40
0.0
 40
0.2177796924
 40
0.4509239527
 40
0.7102593987
 40
1.0
 40
1.0
 40
1.0
 40
1.0
 10
118.5592208013
 20
245.5335764033
 30
0.0
 10
118.5592410087
 20
245.4193133023
 30
0.0
 10
118.5169856171
 20
245.1811415468
 30
0.0
 10
118.336455975
 20
244.8493231212
 30
0.0
 10
118.0510559839
 20
244.5493242754
 30
0.0
 10
117.8122204348
 20
244.384863317
 30
0.0
 10
117.6805678865
 20
244.3088541365
 30
0.0
  0
SPLINE
  5
2DA
100
AcDbEntity
  8
0
100
AcDbSpline
 62
7
  6
CONTINUOUS
 70
0
 71
3
 72
14
 73
10
 74
0
 42
0.0000001
 43
0.0000001
 44
0.0000000001
 40
0.0
 40
0.0
 40
0.0
 40
0.0
 40
0.3072080201
 40
0.4497478615
 40
0.5815297174
 40
0.701315719
 40
0.8092838373
 40
0.9074709308
 40
1.0
 40
1.0
 40
1.0
 40
1.0
 10
37.9850531376
 20
247.4062934827
 30
0.0
 10
37.6358311822
 20
247.430515352
 30
0.0
 10
37.1249705741
 20
247.5177112798
 30
0.0
 10
36.5016121226
 20
247.7467286167
 30
0.0
 10
36.1039676879
 20
247.9591705723
 30
0.0
 10
35.7773972395
 20
248.2102045429
 30
0.0
 10
35.5323926784
 20
248.4935520702
 30
0.0
 10
35.3786919611
 20
248.8018567448
 30
0.0
 10
35.3431888554
 20
249.0204882944
 30
0.0
 10
35.343170209
 20
249.1259243892
 30
0.0
  0
SPLINE
  5
2DB
100
AcDbEntity
  8
0
100
AcDbSpline
 62
7
  6
CONTINUOUS
 70
0
 71
3
 72
11
 73
7
 74
0
 42
0.0000001
 43
0.0000001
 44
0.0000000001
 40
0.0
 40
0.0
 40
0.0
 40
0.0
 40
0.2372279391
 40
0.4999994739
 40
0.762771295
 40
1.0
 40
1.0
 40
1.0
 40
1.0
 10
77.9412969075
 20
228.7139493907
 30
0.0
 10
78.2424491927
 20
228.8878187058
 30
0.0
 10
78.9428043975
 20
229.1415633183
 30
0.0
 10
80.0626139159
 20
229.2631128818
 30
0.0
 10
81.1824251238
 20
229.1415684285
 30
0.0
 10
81.8827830832
 20
228.8878272935
 30
0.0
 10
82.1839375946
 20
228.7139595887
 30
0.0
  0
SPLINE
  5
2DC
100
AcDbEntity
  8
0
100
AcDbSpline
 62
7
  6
CONTINUOUS
 70
0
 71
3
 72
11
 73
7
 74
0
 42
0.0000001
 43
0.0000001
 44
0.0000000001
 40
0.0
 40
0.0
 40
0.0
 40
0.0
 40
0.2177753738
 40
0.4509336309
 40
0.7102261693
 40
1.0
 40
1.0
 40
1.0
 40
1.0
 10
77.062640098
 20
226.3461237431
 30
0.0
 10
77.0626400995
 20
226.2318606277
 30
0.0
 10
77.1048392062
 20
225.9936721693
 30
0.0
 10
77.2854156931
 20
225.6618806069
 30
0.0
 10
77.5707886021
 20
225.3618511425
 30
0.0
 10
77.8096437504
 20
225.1974097457
 30
0.0
 10
77.9413145713
 20
225.1213912815
 30
0.0
  0
SPLINE
  5
2DD
100
AcDbEntity
  8
0
100
AcDbSpline
 62
7
  6
CONTINUOUS
 70
0
 71
3
 72
11
 73
7
 74
0
 42
0.0000001
 43
0.0000001
 44
0.0000000001
 40
0.0
 40
0.0
 40
0.0
 40
0.0
 40
0.2177727701
 40
0.4509280213
 40
0.7102223029
 40
1.0
 40
1.0
 40
1.0
 40
1.0
 10
83.0626040306
 20
225.0397198757
 30
0.0
 10
83.062604032
 20
224.9254599756
 30
0.0
 10
83.0204073108
 20
224.6872786171
 30
0.0
 10
82.8398417031
 20
224.3554906367
 30
0.0
 10
82.5544761408
 20
224.0554612819
 30
0.0
 10
82.315625157
 20
223.8910168098
 30
0.0
 10
82.1839552584
 20
223.8149976122
 30
0.0
  0
SPLINE
  5
2DE
100
AcDbEntity
  8
0
100
AcDbSpline
 62
7
  6
CONTINUOUS
 70
0
 71
3
 72
11
 73
7
 74
0
 42
0.0000001
 43
0.0000001
 44
0.0000000001
 40
0.0
 40
0.0
 40
0.0
 40
0.0
 40
0.2372251801
 40
0.5000005261
 40
0.7627755858
 40
1.0
 40
1.0
 40
1.0
 40
1.0
 10
40.4644638109
 20
251.6570607214
 30
0.0
 10
40.1633135953
 20
251.8309259461
 30
0.0
 10
39.4629576404
 20
252.0846722792
 30
0.0
 10
38.3431401322
 20
252.2062202267
 30
0.0
 10
37.2233243135
 20
252.084667169
 30
0.0
 10
36.5229711133
 20
251.8309173583
 30
0.0
 10
36.2218231238
 20
251.6570505234
 30
0.0
  0
SPLINE
  5
2DF
100
AcDbEntity
  8
0
100
AcDbSpline
 62
7
  6
CONTINUOUS
 70
0
 71
3
 72
9
 73
5
 74
0
 42
0.0000001
 43
0.0000001
 44
0.0000000001
 40
0.0
 40
0.0
 40
0.0
 40
0.0
 40
0.4752390475
 40
1.0
 40
1.0
 40
1.0
 40
1.0
 10
36.2218407876
 20
249.2075957982
 30
0.0
 10
36.4695258128
 20
249.0645980173
 30
0.0
 10
37.0355801985
 20
248.8404575462
 30
0.0
 10
37.6328267593
 20
248.7396105611
 30
0.0
 10
37.9477016143
 20
248.7154181771
 30
0.0
  0
SPLINE
  5
2E0
100
AcDbEntity
  8
0
100
AcDbSpline
 62
7
  6
CONTINUOUS
 70
0
 71
3
 72
9
 73
5
 74
0
 42
0.0000001
 43
0.0000001
 44
0.0000000001
 40
0.0
 40
0.0
 40
0.0
 40
0.0
 40
0.2270441754
 40
1.0
 40
1.0
 40
1.0
 40
1.0
 10
41.1849446985
 20
250.9873579412
 30
0.0
 10
41.1470698364
 20
251.0520177121
 30
0.0
 10
40.9558234297
 20
251.3226222354
 30
0.0
 10
40.6854002772
 20
251.5295058788
 30
0.0
 10
40.4644638109
 20
251.6570607214
 30
0.0
  0
SPLINE
  5
2E1
100
AcDbEntity
  8
0
100
AcDbSpline
 62
7
  6
CONTINUOUS
 70
0
 71
3
 72
9
 73
5
 74
0
 42
0.0000001
 43
0.0000001
 44
0.0000000001
 40
0.0
 40
0.0
 40
0.0
 40
0.0
 40
0.2709897213
 40
1.0
 40
1.0
 40
1.0
 40
1.0
 10
71.7184357519
 20
272.1509070477
 30
0.0
 10
71.6520418895
 20
272.1125747622
 30
0.0
 10
71.4132187991
 20
271.9614418154
 30
0.0
 10
71.1983567664
 20
271.7669752726
 30
0.0
 10
71.0765120317
 20
271.6005730583
 30
0.0
  0
SPLINE
  5
2E2
100
AcDbEntity
  8
0
100
AcDbSpline
 62
7
  6
CONTINUOUS
 70
0
 71
3
 72
11
 73
7
 74
0
 42
0.0000001
 43
0.0000001
 44
0.0000000001
 40
0.0
 40
0.0
 40
0.0
 40
0.0
 40
0.2897733512
 40
0.5490657165
 40
0.7822241652
 40
1.0
 40
1.0
 40
1.0
 40
1.0
 10
110.4680704754
 20
250.7591813829
 30
0.0
 10
110.6436282869
 20
250.8605391277
 30
0.0
 10
110.9620957741
 20
251.0797934864
 30
0.0
 10
111.3425852583
 20
251.4798298072
 30
0.0
 10
111.583348699
 20
251.9222142736
 30
0.0
 10
111.63961289
 20
252.2397952204
 30
0.0
 10
111.639612888
 20
252.392144401
 30
0.0
  0
SPLINE
  5
2E3
100
AcDbEntity
  8
0
100
AcDbSpline
 62
7
  6
CONTINUOUS
 70
0
 71
3
 72
13
 73
9
 74
0
 42
0.0000001
 43
0.0000001
 44
0.0000000001
 40
0.0
 40
0.0
 40
0.0
 40
0.0
 40
0.1142466307
 40
0.237544229
 40
0.5000005226
 40
0.7624565301
 40
0.8857537943
 40
1.0
 40
1.0
 40
1.0
 40
1.0
 10
104.8112162259
 20
250.7591677855
 30
0.0
 10
105.0048281746
 20
250.6473884036
 30
0.0
 10
105.4282688449
 20
250.4501968817
 30
0.0
 10
106.3667103018
 20
250.1651815393
 30
0.0
 10
107.6396477816
 20
250.0267262292
 30
0.0
 10
108.9125840373
 20
250.1651874249
 30
0.0
 10
109.8510219774
 20
250.4502073836
 30
0.0
 10
110.274460053
 20
250.6474010207
 30
0.0
 10
110.4680704754
 20
250.7591813829
 30
0.0
  0
SPLINE
  5
2E4
100
AcDbEntity
  8
0
100
AcDbSpline
 62
7
  6
CONTINUOUS
 70
0
 71
3
 72
11
 73
7
 74
0
 42
0.0000001
 43
0.0000001
 44
0.0000000001
 40
0.0
 40
0.0
 40
0.0
 40
0.0
 40
0.237228705
 40
0.5000005261
 40
0.7627720609
 40
1.0
 40
1.0
 40
1.0
 40
1.0
 10
77.9413175153
 20
223.4067449599
 30
0.0
 10
78.2424720266
 20
223.2328772551
 30
0.0
 10
78.942829986
 20
222.9791361201
 30
0.0
 10
80.062641194
 20
222.8575916669
 30
0.0
 10
81.1824507123
 20
222.9791412303
 30
0.0
 10
81.8828059171
 20
223.2328858429
 30
0.0
 10
82.1839582023
 20
223.406755158
 30
0.0
  0
SPLINE
  5
2E5
100
AcDbEntity
  8
0
100
AcDbSpline
 62
7
  6
CONTINUOUS
 70
0
 71
3
 72
11
 73
7
 74
0
 42
0.0000001
 43
0.0000001
 44
0.0000000001
 40
0.0
 40
0.0
 40
0.0
 40
0.0
 40
0.2177727366
 40
0.450931526
 40
0.7102279717
 40
1.0
 40
1.0
 40
1.0
 40
1.0
 10
111.6396020427
 20
249.5343859375
 30
0.0
 10
111.6396056339
 20
249.3820393018
 30
0.0
 10
111.5833416099
 20
249.0644607348
 30
0.0
 10
111.3425846374
 20
248.6220735786
 30
0.0
 10
110.9620942466
 20
248.2220361436
 30
0.0
 10
110.6436270506
 20
248.0027799539
 30
0.0
 10
110.4680704754
 20
247.901422923
 30
0.0
  0
SPLINE
  5
2E6
100
AcDbEntity
  8
0
100
AcDbSpline
 62
7
  6
CONTINUOUS
 70
0
 71
3
 72
17
 73
13
 74
0
 42
0.0000001
 43
0.0000001
 44
0.0000000001
 40
0.0
 40
0.0
 40
0.0
 40
0.0
 40
0.1286923651
 40
0.2702770074
 40
0.417433908
 40
0.5617794078
 40
0.6954504941
 40
0.8127129393
 40
0.8646788001
 40
0.9125109544
 40
0.9571403961
 40
1.0
 40
1.0
 40
1.0
 40
1.0
 10
82.1839552584
 20
223.8149976122
 30
0.0
 10
81.9618776773
 20
223.6867818263
 30
0.0
 10
81.4590752714
 20
223.4793191592
 30
0.0
 10
80.6395983406
 20
223.3153972376
 30
0.0
 10
79.7728597769
 20
223.2913831528
 30
0.0
 10
78.9295828858
 20
223.4098709638
 30
0.0
 10
78.1781279289
 20
223.660851731
 30
0.0
 10
77.6555507209
 20
223.979022357
 30
0.0
 10
77.3487843714
 20
224.2867820513
 30
0.0
 10
77.1859220146
 20
224.52647891
 30
0.0
 10
77.0854578462
 20
224.7792384862
 30
0.0
 10
77.0626590961
 20
224.954317723
 30
0.0
 10
77.0626439927
 20
225.0397198725
 30
0.0
  0
SPLINE
  5
2E7
100
AcDbEntity
  8
0
100
AcDbSpline
 62
7
  6
CONTINUOUS
 70
0
 71
3
 72
11
 73
7
 74
0
 42
0.0000001
 43
0.0000001
 44
0.0000000001
 40
0.0
 40
0.0
 40
0.0
 40
0.0
 40
0.2177753738
 40
0.4509336309
 40
0.7102261693
 40
1.0
 40
1.0
 40
1.0
 40
1.0
 10
103.6396502615
 20
252.392144401
 30
0.0
 10
103.6396502635
 20
252.2397935804
 30
0.0
 10
103.6959157391
 20
251.9222089692
 30
0.0
 10
103.9366843883
 20
251.4798202194
 30
0.0
 10
104.3171816003
 20
251.0797809335
 30
0.0
 10
104.6356551313
 20
250.8605257377
 30
0.0
 10
104.8112162259
 20
250.7591677855
 30
0.0
  0
SPLINE
  5
2E8
100
AcDbEntity
  8
0
100
AcDbSpline
 62
7
  6
CONTINUOUS
 70
0
 71
3
 72
11
 73
7
 74
0
 42
0.0000001
 43
0.0000001
 44
0.0000000001
 40
0.0
 40
0.0
 40
0.0
 40
0.0
 40
0.2177753738
 40
0.4509336309
 40
0.7102261693
 40
1.0
 40
1.0
 40
1.0
 40
1.0
 10
35.3431663143
 20
250.4323282598
 30
0.0
 10
35.3431663158
 20
250.3180651444
 30
0.0
 10
35.3853654225
 20
250.079876686
 30
0.0
 10
35.5659419094
 20
249.7480851236
 30
0.0
 10
35.8513148184
 20
249.4480556592
 30
0.0
 10
36.0901699667
 20
249.2836142624
 30
0.0
 10
36.2218407876
 20
249.2075957982
 30
0.0
  0
SPLINE
  5
2E9
100
AcDbEntity
  8
0
100
AcDbSpline
 62
7
  6
CONTINUOUS
 70
0
 71
3
 72
11
 73
7
 74
0
 42
0.0000001
 43
0.0000001
 44
0.0000000001
 40
0.0
 40
0.0
 40
0.0
 40
0.0
 40
0.2177801763
 40
0.4509351099
 40
0.7102274479
 40
1.0
 40
1.0
 40
1.0
 40
1.0
 10
71.6937585196
 20
135.0994682895
 30
0.0
 10
71.5288234554
 20
135.1946854874
 30
0.0
 10
71.2201633411
 20
135.4540664291
 30
0.0
 10
70.8917485784
 20
135.9912214244
 30
0.0
 10
70.6964807922
 20
136.6531462232
 30
0.0
 10
70.6581691885
 20
137.1349478532
 30
0.0
 10
70.6581691885
 20
137.3883510101
 30
0.0
  0
SPLINE
  5
2EA
100
AcDbEntity
  8
0
100
AcDbSpline
 62
7
  6
CONTINUOUS
 70
0
 71
3
 72
11
 73
7
 74
0
 42
0.0000001
 43
0.0000001
 44
0.0000000001
 40
0.0
 40
0.0
 40
0.0
 40
0.0
 40
0.2825634604
 40
0.5421275945
 40
0.7797884149
 40
1.0
 40
1.0
 40
1.0
 40
1.0
 10
116.6199186074
 20
216.9968781252
 30
0.0
 10
116.7933458644
 20
217.097005801
 30
0.0
 10
117.1389122385
 20
217.2683348354
 30
0.0
 10
117.6684473966
 20
217.4353618143
 30
0.0
 10
118.1764846373
 20
217.4967285096
 30
0.0
 10
118.5029285403
 20
217.4634129486
 30
0.0
 10
118.654849305
 20
217.4276792808
 30
0.0
  0
SPLINE
  5
2EB
100
AcDbEntity
  8
0
100
AcDbSpline
 62
7
  6
CONTINUOUS
 70
0
 71
3
 72
9
 73
5
 74
0
 42
0.0000001
 43
0.0000001
 44
0.0000000001
 40
0.0
 40
0.0
 40
0.0
 40
0.0
 40
0.2534896757
 40
1.0
 40
1.0
 40
1.0
 40
1.0
 10
118.654849305
 20
217.4276792808
 30
0.0
 10
118.6960407458
 20
217.4179905377
 30
0.0
 10
118.8571588248
 20
217.374153157
 30
0.0
 10
119.0119284697
 20
217.3067796463
 30
0.0
 10
119.1198484657
 20
217.2444695189
 30
0.0
  0
SPLINE
  5
2EC
100
AcDbEntity
  8
0
100
AcDbSpline
 62
7
  6
CONTINUOUS
 70
0
 71
3
 72
11
 73
7
 74
0
 42
0.0000001
 43
0.0000001
 44
0.0000000001
 40
0.0
 40
0.0
 40
0.0
 40
0.0
 40
0.2495718911
 40
0.5121454504
 40
0.7682614652
 40
1.0
 40
1.0
 40
1.0
 40
1.0
 10
81.3510943708
 20
193.4488784574
 30
0.0
 10
81.4428064301
 20
193.9721168286
 30
0.0
 10
81.7641677798
 20
195.0242936914
 30
0.0
 10
82.5404371461
 20
196.4740934452
 30
0.0
 10
83.5522298956
 20
197.7221201283
 30
0.0
 10
84.3730724479
 20
198.3792639466
 30
0.0
 10
84.8002459328
 20
198.625891201
 30
0.0
  0
SPLINE
  5
2ED
100
AcDbEntity
  8
0
100
AcDbSpline
 62
7
  6
CONTINUOUS
 70
0
 71
3
 72
11
 73
7
 74
0
 42
0.0000001
 43
0.0000001
 44
0.0000000001
 40
0.0
 40
0.0
 40
0.0
 40
0.0
 40
0.2434006546
 40
0.4999988583
 40
0.7565976583
 40
1.0
 40
1.0
 40
1.0
 40
1.0
 10
77.2753136322
 20
182.9373773524
 30
0.0
 10
77.6813402001
 20
183.27737143
 30
0.0
 10
78.4443334965
 20
184.0629551938
 30
0.0
 10
79.3817481907
 20
185.4243060296
 30
0.0
 10
80.0919992726
 20
186.9168132797
 30
0.0
 10
80.3908357493
 20
187.9703823782
 30
0.0
 10
80.4822659141
 20
188.4920124764
 30
0.0
  0
SPLINE
  5
2EE
100
AcDbEntity
  8
0
100
AcDbSpline
 62
7
  6
CONTINUOUS
 70
0
 71
3
 72
11
 73
7
 74
0
 42
0.0000001
 43
0.0000001
 44
0.0000000001
 40
0.0
 40
0.0
 40
0.0
 40
0.0
 40
0.2317404913
 40
0.4878572774
 40
0.7504301505
 40
1.0
 40
1.0
 40
1.0
 40
1.0
 10
70.6581691885
 20
174.1309597809
 30
0.0
 10
70.6581691885
 20
174.6242214927
 30
0.0
 10
70.8168505938
 20
175.6636711553
 30
0.0
 10
71.3917724571
 20
177.1639319546
 30
0.0
 10
72.2591929348
 20
178.5611042462
 30
0.0
 10
73.0097184548
 20
179.3655000114
 30
0.0
 10
73.4169970475
 20
179.7065424958
 30
0.0
  0
SPLINE
  5
2EF
100
AcDbEntity
  8
0
100
AcDbSpline
 62
7
  6
CONTINUOUS
 70
0
 71
3
 72
9
 73
5
 74
0
 42
0.0000001
 43
0.0000001
 44
0.0000000001
 40
0.0
 40
0.0
 40
0.0
 40
0.0
 40
0.5128299243
 40
1.0
 40
1.0
 40
1.0
 40
1.0
 10
83.7383466148
 20
128.4670761224
 30
0.0
 10
83.8208751842
 20
128.3175487262
 30
0.0
 10
84.0163824582
 20
128.0428263056
 30
0.0
 10
84.2812223918
 20
127.832251997
 30
0.0
 10
84.4217335773
 20
127.7511347163
 30
0.0
  0
SPLINE
  5
2F0
100
AcDbEntity
  8
0
100
AcDbSpline
 62
7
  6
CONTINUOUS
 70
0
 71
3
 72
9
 73
5
 74
0
 42
0.0000001
 43
0.0000001
 44
0.0000000001
 40
0.0
 40
0.0
 40
0.0
 40
0.0
 40
0.4871718667
 40
1.0
 40
1.0
 40
1.0
 40
1.0
 10
131.8478235229
 20
209.8961359459
 30
0.0
 10
131.707327587
 20
209.9772545676
 30
0.0
 10
131.3925701386
 20
210.1013126303
 30
0.0
 10
131.0569279724
 20
210.1332671571
 30
0.0
 10
130.8861835268
 20
210.1299784398
 30
0.0
  0
SPLINE
  5
2F1
100
AcDbEntity
  8
0
100
AcDbSpline
 62
7
  6
CONTINUOUS
 70
0
 71
3
 72
9
 73
5
 74
0
 42
0.0000001
 43
0.0000001
 44
0.0000000001
 40
0.0
 40
0.0
 40
0.0
 40
0.0
 40
0.4873063004
 40
1.0
 40
1.0
 40
1.0
 40
1.0
 10
93.2102409667
 20
181.1436788951
 30
0.0
 10
93.1375797031
 20
180.7291296904
 30
0.0
 10
92.9181069646
 20
179.890005319
 30
0.0
 10
92.5852734606
 20
179.0900366468
 30
0.0
 10
92.389305547
 20
178.6929672063
 30
0.0
  0
SPLINE
  5
2F2
100
AcDbEntity
  8
0
100
AcDbSpline
 62
7
  6
CONTINUOUS
 70
0
 71
3
 72
9
 73
5
 74
0
 42
0.0000001
 43
0.0000001
 44
0.0000000001
 40
0.0
 40
0.0
 40
0.0
 40
0.0
 40
0.5126946698
 40
1.0
 40
1.0
 40
1.0
 40
1.0
 10
91.715182638
 20
177.5253456042
 30
0.0
 10
91.4692970532
 20
177.1570979343
 30
0.0
 10
90.9429267413
 20
176.4688728259
 30
0.0
 10
90.3259653516
 20
175.8592432218
 30
0.0
 10
90.0032886849
 20
175.589043771
 30
0.0
  0
SPLINE
  5
2F3
100
AcDbEntity
  8
0
100
AcDbSpline
 62
7
  6
CONTINUOUS
 70
0
 71
3
 72
9
 73
5
 74
0
 42
0.0000001
 43
0.0000001
 44
0.0000000001
 40
0.0
 40
0.0
 40
0.0
 40
0.0
 40
0.2466708782
 40
1.0
 40
1.0
 40
1.0
 40
1.0
 10
95.9899358777
 20
189.9827433845
 30
0.0
 10
95.9300353572
 20
189.9147305036
 30
0.0
 10
95.6920757306
 20
189.63474211
 30
0.0
 10
95.4733106488
 20
189.3385101095
 30
0.0
 10
95.3198464869
 20
189.1081676693
 30
0.0
  0
SPLINE
  5
2F4
100
AcDbEntity
  8
0
100
AcDbSpline
 62
7
  6
CONTINUOUS
 70
0
 71
3
 72
9
 73
5
 74
0
 42
0.0000001
 43
0.0000001
 44
0.0000000001
 40
0.0
 40
0.0
 40
0.0
 40
0.0
 40
0.2529535339
 40
1.0
 40
1.0
 40
1.0
 40
1.0
 10
84.1607016225
 20
169.7798544992
 30
0.0
 10
84.1194849273
 20
169.6965556756
 30
0.0
 10
83.9619550179
 20
169.3646102263
 30
0.0
 10
83.8260204877
 20
169.0223404386
 30
0.0
 10
83.7383443153
 20
168.7622465274
 30
0.0
  0
SPLINE
  5
2F5
100
AcDbEntity
  8
0
100
AcDbSpline
 62
7
  6
CONTINUOUS
 70
0
 71
3
 72
9
 73
5
 74
0
 42
0.0000001
 43
0.0000001
 44
0.0000000001
 40
0.0
 40
0.0
 40
0.0
 40
0.0
 40
0.2436557738
 40
1.0
 40
1.0
 40
1.0
 40
1.0
 10
33.3094518015
 20
159.5283447581
 30
0.0
 10
33.1437047022
 20
159.9682507701
 30
0.0
 10
32.5157458914
 20
161.7931834738
 30
0.0
 10
32.0962578897
 20
163.6880545901
 30
0.0
 10
31.8871837892
 20
165.1322453319
 30
0.0
  0
SPLINE
  5
2F6
100
AcDbEntity
  8
0
100
AcDbSpline
 62
7
  6
CONTINUOUS
 70
0
 71
3
 72
9
 73
5
 74
0
 42
0.0000001
 43
0.0000001
 44
0.0000000001
 40
0.0
 40
0.0
 40
0.0
 40
0.0
 40
0.4766463765
 40
1.0
 40
1.0
 40
1.0
 40
1.0
 10
35.3017257567
 20
156.1096986835
 30
0.0
 10
35.0053866555
 20
156.2807966768
 30
0.0
 10
34.4567071114
 20
156.7738853651
 30
0.0
 10
34.1113871374
 20
157.4171641748
 30
0.0
 10
33.9772988836
 20
157.7681399191
 30
0.0
  0
SPLINE
  5
2F7
100
AcDbEntity
  8
0
100
AcDbSpline
 62
7
  6
CONTINUOUS
 70
0
 71
3
 72
11
 73
7
 74
0
 42
0.0000001
 43
0.0000001
 44
0.0000000001
 40
0.0
 40
0.0
 40
0.0
 40
0.0
 40
0.2434006546
 40
0.4999988583
 40
0.7565976583
 40
1.0
 40
1.0
 40
1.0
 40
1.0
 10
63.4159630194
 20
190.938896141
 30
0.0
 10
63.8219895873
 20
191.2788902186
 30
0.0
 10
64.5849828837
 20
192.0644739824
 30
0.0
 10
65.5223975778
 20
193.4258248182
 30
0.0
 10
66.2326486598
 20
194.9183320683
 30
0.0
 10
66.5314851365
 20
195.9719011668
 30
0.0
 10
66.6229153012
 20
196.493531265
 30
0.0
  0
SPLINE
  5
2F8
100
AcDbEntity
  8
0
100
AcDbSpline
 62
7
  6
CONTINUOUS
 70
0
 71
3
 72
9
 73
5
 74
0
 42
0.0000001
 43
0.0000001
 44
0.0000000001
 40
0.0
 40
0.0
 40
0.0
 40
0.0
 40
0.2555794523
 40
1.0
 40
1.0
 40
1.0
 40
1.0
 10
44.5820217371
 20
187.6528989453
 30
0.0
 10
44.5820217371
 20
188.8911597098
 30
0.0
 10
44.5921460876
 20
193.7360621908
 30
0.0
 10
44.6511626704
 20
198.5809196136
 30
0.0
 10
44.7274760635
 20
202.1867665643
 30
0.0
  0
SPLINE
  5
2F9
100
AcDbEntity
  8
0
100
AcDbSpline
 62
7
  6
CONTINUOUS
 70
0
 71
3
 72
9
 73
5
 74
0
 42
0.0000001
 43
0.0000001
 44
0.0000000001
 40
0.0
 40
0.0
 40
0.0
 40
0.0
 40
0.5119210855
 40
1.0
 40
1.0
 40
1.0
 40
1.0
 10
45.2966600056
 20
154.1243438692
 30
0.0
 10
45.0401348658
 20
159.8415600417
 30
0.0
 10
44.693857325
 20
171.0168914462
 30
0.0
 10
44.5820217371
 20
182.1964717271
 30
0.0
 10
44.5820217371
 20
187.6528989453
 30
0.0
  0
SPLINE
  5
2FA
100
AcDbEntity
  8
0
100
AcDbSpline
 62
7
  6
CONTINUOUS
 70
0
 71
3
 72
9
 73
5
 74
0
 42
0.0000001
 43
0.0000001
 44
0.0000000001
 40
0.0
 40
0.0
 40
0.0
 40
0.0
 40
0.2476643289
 40
1.0
 40
1.0
 40
1.0
 40
1.0
 10
29.9850913192
 20
180.7111503453
 30
0.0
 10
30.1127131386
 20
179.4217249308
 30
0.0
 10
30.6582176189
 20
174.2184064721
 30
0.0
 10
31.3232436443
 20
169.027692611
 30
0.0
 10
31.8871837892
 20
165.1322453319
 30
0.0
  0
SPLINE
  5
2FB
100
AcDbEntity
  8
0
100
AcDbSpline
 62
7
  6
CONTINUOUS
 70
0
 71
3
 72
11
 73
7
 74
0
 42
0.0000001
 43
0.0000001
 44
0.0000000001
 40
0.0
 40
0.0
 40
0.0
 40
0.0
 40
0.2840365369
 40
0.5436764542
 40
0.7806372748
 40
1.0
 40
1.0
 40
1.0
 40
1.0
 10
116.1956527723
 20
217.2418225779
 30
0.0
 10
116.3772578443
 20
217.3466716892
 30
0.0
 10
116.738934696
 20
217.5246820783
 30
0.0
 10
117.2935125001
 20
217.6924957451
 30
0.0
 10
117.8235684102
 20
217.7433336708
 30
0.0
 10
118.161366742
 20
217.6949718242
 30
0.0
 10
118.316964284
 20
217.6500526224
 30
0.0
  0
SPLINE
  5
2FC
100
AcDbEntity
  8
0
100
AcDbSpline
 62
7
  6
CONTINUOUS
 70
0
 71
3
 72
11
 73
7
 74
0
 42
0.0000001
 43
0.0000001
 44
0.0000000001
 40
0.0
 40
0.0
 40
0.0
 40
0.0
 40
0.2682905642
 40
0.527595896
 40
0.7738196402
 40
1.0
 40
1.0
 40
1.0
 40
1.0
 10
61.0414769265
 20
179.6830340424
 30
0.0
 10
59.7939393854
 20
180.8191309715
 30
0.0
 10
57.419886783
 20
183.1417972855
 30
0.0
 10
54.1673371799
 20
186.7657950507
 30
0.0
 10
51.2960591383
 20
190.3650263538
 30
0.0
 10
49.5614168224
 20
192.7782693541
 30
0.0
 10
48.7508538835
 20
193.9472247241
 30
0.0
  0
SPLINE
  5
2FD
100
AcDbEntity
  8
0
100
AcDbSpline
 62
7
  6
CONTINUOUS
 70
0
 71
3
 72
9
 73
5
 74
0
 42
0.0000001
 43
0.0000001
 44
0.0000000001
 40
0.0
 40
0.0
 40
0.0
 40
0.0
 40
0.5128299243
 40
1.0
 40
1.0
 40
1.0
 40
1.0
 10
71.0103715622
 20
135.8154097038
 30
0.0
 10
71.0929001315
 20
135.6658823075
 30
0.0
 10
71.2884074055
 20
135.391159887
 30
0.0
 10
71.5532473391
 20
135.1805855784
 30
0.0
 10
71.6937585246
 20
135.0994682977
 30
0.0
  0
SPLINE
  5
2FE
100
AcDbEntity
  8
0
100
AcDbSpline
 62
7
  6
CONTINUOUS
 70
0
 71
3
 72
9
 73
5
 74
0
 42
0.0000001
 43
0.0000001
 44
0.0000000001
 40
0.0
 40
0.0
 40
0.0
 40
0.0
 40
0.2529535339
 40
1.0
 40
1.0
 40
1.0
 40
1.0
 10
71.432726569
 20
177.1281880789
 30
0.0
 10
71.3915098739
 20
177.0448892554
 30
0.0
 10
71.2339799648
 20
176.7129438067
 30
0.0
 10
71.0980454349
 20
176.3706740195
 30
0.0
 10
71.0103692627
 20
176.1105801087
 30
0.0
  0
SPLINE
  5
2FF
100
AcDbEntity
  8
0
100
AcDbSpline
 62
7
  6
CONTINUOUS
 70
0
 71
3
 72
9
 73
5
 74
0
 42
0.0000001
 43
0.0000001
 44
0.0000000001
 40
0.0
 40
0.0
 40
0.0
 40
0.0
 40
0.2466708782
 40
1.0
 40
1.0
 40
1.0
 40
1.0
 10
83.261960825
 20
197.3310769658
 30
0.0
 10
83.2020603045
 20
197.263064085
 30
0.0
 10
82.964100678
 20
196.9830756914
 30
0.0
 10
82.7453355963
 20
196.686843691
 30
0.0
 10
82.5918714344
 20
196.4565012509
 30
0.0
  0
SPLINE
  5
300
100
AcDbEntity
  8
0
100
AcDbSpline
 62
7
  6
CONTINUOUS
 70
0
 71
3
 72
9
 73
5
 74
0
 42
0.0000001
 43
0.0000001
 44
0.0000000001
 40
0.0
 40
0.0
 40
0.0
 40
0.0
 40
0.2555445293
 40
1.0
 40
1.0
 40
1.0
 40
1.0
 10
118.316964284
 20
218.4665550395
 30
0.0
 10
118.33762614
 20
218.4784840964
 30
0.0
 10
118.4178774744
 20
218.5261970882
 30
0.0
 10
118.495663455
 20
218.5780914464
 30
0.0
 10
118.5517283415
 20
218.6191711639
 30
0.0
  0
SPLINE
  5
301
100
AcDbEntity
  8
0
100
AcDbSpline
 62
7
  6
CONTINUOUS
 70
0
 71
3
 72
9
 73
5
 74
0
 42
0.0000001
 43
0.0000001
 44
0.0000000001
 40
0.0
 40
0.0
 40
0.0
 40
0.0
 40
0.5375710342
 40
1.0
 40
1.0
 40
1.0
 40
1.0
 10
118.5517283415
 20
218.6191711639
 30
0.0
 10
118.7136680838
 20
218.7378272298
 30
0.0
 10
118.9914485024
 20
218.9978023938
 30
0.0
 10
119.1519001861
 20
219.3508234988
 30
0.0
 10
119.1810545701
 20
219.5210406315
 30
0.0
  0
SPLINE
  5
302
100
AcDbEntity
  8
0
100
AcDbSpline
 62
7
  6
CONTINUOUS
 70
0
 71
3
 72
9
 73
5
 74
0
 42
0.0000001
 43
0.0000001
 44
0.0000000001
 40
0.0
 40
0.0
 40
0.0
 40
0.0
 40
0.4871718667
 40
1.0
 40
1.0
 40
1.0
 40
1.0
 10
119.1198484702
 20
217.2444695273
 30
0.0
 10
118.9793525344
 20
217.325588149
 30
0.0
 10
118.664595086
 20
217.4496462117
 30
0.0
 10
118.3289529197
 20
217.4816007385
 30
0.0
 10
118.1582084742
 20
217.4783120211
 30
0.0
  0
SPLINE
  5
303
100
AcDbEntity
  8
0
100
AcDbSpline
 62
7
  6
CONTINUOUS
 70
0
 71
3
 72
11
 73
7
 74
0
 42
0.0000001
 43
0.0000001
 44
0.0000000001
 40
0.0
 40
0.0
 40
0.0
 40
0.0
 40
0.2372405738
 40
0.5000004574
 40
0.7627600882
 40
1.0
 40
1.0
 40
1.0
 40
1.0
 10
78.012027899
 20
197.646092994
 30
0.0
 10
78.3131973757
 20
197.4722166492
 30
0.0
 10
79.0135606941
 20
197.2184910789
 30
0.0
 10
80.1333513202
 20
197.0969317486
 30
0.0
 10
81.253140419
 20
197.2184960931
 30
0.0
 10
81.9535012035
 20
197.4722251606
 30
0.0
 10
82.2546685861
 20
197.6461031921
 30
0.0
  0
SPLINE
  5
304
100
AcDbEntity
  8
0
100
AcDbSpline
 62
7
  6
CONTINUOUS
 70
0
 71
3
 72
9
 73
5
 74
0
 42
0.0000001
 43
0.0000001
 44
0.0000000001
 40
0.0
 40
0.0
 40
0.0
 40
0.0
 40
0.5246789304
 40
1.0
 40
1.0
 40
1.0
 40
1.0
 10
82.2546685861
 20
196.8296007749
 30
0.0
 10
82.5495958304
 20
197.2552934575
 30
0.0
 10
83.1859861313
 20
198.0179496791
 30
0.0
 10
83.9696760547
 20
198.6362573053
 30
0.0
 10
84.3759800977
 20
198.8708356537
 30
0.0
  0
SPLINE
  5
305
100
AcDbEntity
  8
0
100
AcDbSpline
 62
7
  6
CONTINUOUS
 70
0
 71
3
 72
10
 73
6
 74
0
 42
0.0000001
 43
0.0000001
 44
0.0000000001
 40
0.0
 40
0.0
 40
0.0
 40
0.0
 40
0.2310840566
 40
0.476709409
 40
1.0
 40
1.0
 40
1.0
 40
1.0
 10
80.4598418001
 20
193.9634317283
 30
0.0
 10
80.5448072328
 20
194.2104977739
 30
0.0
 10
80.7776781165
 20
194.700256257
 30
0.0
 10
81.3874364035
 20
195.6532953501
 30
0.0
 10
81.9177329403
 20
196.3432739211
 30
0.0
 10
82.2546685861
 20
196.8296007749
 30
0.0
  0
SPLINE
  5
306
100
AcDbEntity
  8
0
100
AcDbSpline
 62
7
  6
CONTINUOUS
 70
0
 71
3
 72
9
 73
5
 74
0
 42
0.0000001
 43
0.0000001
 44
0.0000000001
 40
0.0
 40
0.0
 40
0.0
 40
0.0
 40
0.4806765314
 40
1.0
 40
1.0
 40
1.0
 40
1.0
 10
52.7604459953
 20
146.0300396071
 30
0.0
 10
53.9899857045
 20
145.3203197678
 30
0.0
 10
56.7072595089
 20
144.1179301224
 30
0.0
 10
59.5513781139
 20
143.3040136732
 30
0.0
 10
61.0414769265
 20
142.9404252716
 30
0.0
  0
SPLINE
  5
307
100
AcDbEntity
  8
0
100
AcDbSpline
 62
7
  6
CONTINUOUS
 70
0
 71
3
 72
14
 73
10
 74
0
 42
0.0000001
 43
0.0000001
 44
0.0000000001
 40
0.0
 40
0.0
 40
0.0
 40
0.0
 40
0.2892811527
 40
0.4225393337
 40
0.5484966937
 40
0.6678951432
 40
0.7818688351
 40
0.8919525302
 40
1.0
 40
1.0
 40
1.0
 40
1.0
 10
213.1403519305
 20
132.6942992181
 30
0.0
 10
213.1403519305
 20
134.2149264008
 30
0.0
 10
212.9628153701
 20
136.4469521737
 30
0.0
 10
212.2766427507
 20
139.2523945644
 30
0.0
 10
211.5784876413
 20
141.1217906722
 30
0.0
 10
210.6887430405
 20
142.7947094879
 30
0.0
 10
209.6140958692
 20
144.254291169
 30
0.0
 10
208.3644913021
 20
145.4839582458
 30
0.0
 10
207.418849107
 20
146.1439032739
 30
0.0
 10
206.9269659877
 20
146.4278553085
 30
0.0
  0
SPLINE
  5
308
100
AcDbEntity
  8
0
100
AcDbSpline
 62
7
  6
CONTINUOUS
 70
0
 71
3
 72
11
 73
7
 74
0
 42
0.0000001
 43
0.0000001
 44
0.0000000001
 40
0.0
 40
0.0
 40
0.0
 40
0.0
 40
0.2898012489
 40
0.5490510236
 40
0.7822290598
 40
1.0
 40
1.0
 40
1.0
 40
1.0
 10
220.5649304454
 20
166.6198655581
 30
0.0
 10
220.5649304454
 20
167.0354920553
 30
0.0
 10
220.502161506
 20
167.825649046
 30
0.0
 10
220.1818103922
 20
168.9111871541
 30
0.0
 10
219.6433275779
 20
169.7921578071
 30
0.0
 10
219.1370829366
 20
170.2175413857
 30
0.0
 10
218.866602416
 20
170.3736998465
 30
0.0
  0
SPLINE
  5
309
100
AcDbEntity
  8
0
100
AcDbSpline
 62
7
  6
CONTINUOUS
 70
0
 71
3
 72
15
 73
11
 74
0
 42
0.0000001
 43
0.0000001
 44
0.0000000001
 40
0.0
 40
0.0
 40
0.0
 40
0.0
 40
0.1141543519
 40
0.237325601
 40
0.366974755
 40
0.4999984147
 40
0.6330222943
 40
0.7626720931
 40
0.8858443543
 40
1.0
 40
1.0
 40
1.0
 40
1.0
 10
214.7666789802
 20
100.5648778608
 30
0.0
 10
215.1636160144
 20
100.7940481964
 30
0.0
 10
215.9476377254
 20
101.3436418728
 30
0.0
 10
217.0264087902
 20
102.3529197442
 30
0.0
 10
218.020554624
 20
103.5459614974
 30
0.0
 10
218.8926301954
 20
104.8780123171
 30
0.0
 10
219.610176413
 20
106.2992831618
 30
0.0
 10
220.1463044508
 20
107.7567688436
 30
0.0
 10
220.4809782061
 20
109.1956632315
 30
0.0
 10
220.5649304454
 20
110.1494518251
 30
0.0
 10
220.5649304454
 20
110.607799743
 30
0.0
  0
SPLINE
  5
30A
100
AcDbEntity
  8
0
100
AcDbSpline
 62
7
  6
CONTINUOUS
 70
0
 71
3
 72
9
 73
5
 74
0
 42
0.0000001
 43
0.0000001
 44
0.0000000001
 40
0.0
 40
0.0
 40
0.0
 40
0.0
 40
0.2574675481
 40
1.0
 40
1.0
 40
1.0
 40
1.0
 10
216.4206953198
 20
109.9349785668
 30
0.0
 10
216.4625798887
 20
109.9309090364
 30
0.0
 10
216.6243643085
 20
109.9073130408
 30
0.0
 10
216.7815206027
 20
109.8496974102
 30
0.0
 10
216.8866165936
 20
109.7890024586
 30
0.0
  0
SPLINE
  5
30B
100
AcDbEntity
  8
0
100
AcDbSpline
 62
7
  6
CONTINUOUS
 70
0
 71
3
 72
17
 73
13
 74
0
 42
0.0000001
 43
0.0000001
 44
0.0000000001
 40
0.0
 40
0.0
 40
0.0
 40
0.0
 40
0.1286933065
 40
0.2702801751
 40
0.4174384432
 40
0.5617797022
 40
0.6954488753
 40
0.8127120148
 40
0.8646745954
 40
0.9125103814
 40
0.9571382807
 40
1.0
 40
1.0
 40
1.0
 40
1.0
 10
212.9635641953
 20
162.8027925959
 30
0.0
 10
212.9635641953
 20
163.0805950054
 30
0.0
 10
213.0412707639
 20
163.6647004206
 30
0.0
 10
213.3313608266
 20
164.5223262185
 30
0.0
 10
213.77831637
 20
165.3484929696
 30
0.0
 10
214.3462650627
 20
166.0754489241
 30
0.0
 10
214.9887602313
 20
166.6444728425
 30
0.0
 10
215.5702943253
 20
166.9624932687
 30
0.0
 10
216.0252132058
 20
167.0834840655
 30
0.0
 10
216.3383083923
 20
167.1065781904
 30
0.0
 10
216.629842965
 20
167.0637790838
 30
0.0
 10
216.806495199
 20
166.9904433006
 30
0.0
 10
216.8866165936
 20
166.9441716577
 30
0.0
  0
SPLINE
  5
30C
100
AcDbEntity
  8
0
100
AcDbSpline
 62
7
  6
CONTINUOUS
 70
0
 71
3
 72
17
 73
13
 74
0
 42
0.0000001
 43
0.0000001
 44
0.0000000001
 40
0.0
 40
0.0
 40
0.0
 40
0.0
 40
0.1286933065
 40
0.2702801751
 40
0.4174384432
 40
0.5617797022
 40
0.6954488753
 40
0.8127120148
 40
0.8646745954
 40
0.9125103814
 40
0.9571382807
 40
1.0
 40
1.0
 40
1.0
 40
1.0
 10
163.4662955903
 20
134.2257018249
 30
0.0
 10
163.4662955903
 20
134.5035042344
 30
0.0
 10
163.5440021589
 20
135.0876096496
 30
0.0
 10
163.8340922217
 20
135.9452354475
 30
0.0
 10
164.281047765
 20
136.7714021986
 30
0.0
 10
164.8489964577
 20
137.4983581531
 30
0.0
 10
165.4914916263
 20
138.0673820715
 30
0.0
 10
166.0730257203
 20
138.3854024977
 30
0.0
 10
166.5279446008
 20
138.5063932945
 30
0.0
 10
166.8410397873
 20
138.5294874194
 30
0.0
 10
167.13257436
 20
138.4866883128
 30
0.0
 10
167.309226594
 20
138.4133525296
 30
0.0
 10
167.3893479886
 20
138.3670808867
 30
0.0
  0
SPLINE
  5
30D
100
AcDbEntity
  8
0
100
AcDbSpline
 62
7
  6
CONTINUOUS
 70
0
 71
3
 72
17
 73
13
 74
0
 42
0.0000001
 43
0.0000001
 44
0.0000000001
 40
0.0
 40
0.0
 40
0.0
 40
0.0
 40
0.1286933065
 40
0.2702801751
 40
0.4174384432
 40
0.5617797022
 40
0.6954488753
 40
0.8127120148
 40
0.8646745954
 40
0.9125103814
 40
0.9571382807
 40
1.0
 40
1.0
 40
1.0
 40
1.0
 10
163.4662955903
 20
77.0705326259
 30
0.0
 10
163.4662955903
 20
77.3483350353
 30
0.0
 10
163.5440021589
 20
77.9324404505
 30
0.0
 10
163.8340922217
 20
78.7900662484
 30
0.0
 10
164.281047765
 20
79.6162329995
 30
0.0
 10
164.8489964577
 20
80.343188954
 30
0.0
 10
165.4914916263
 20
80.9122128724
 30
0.0
 10
166.0730257203
 20
81.2302332986
 30
0.0
 10
166.5279446008
 20
81.3512240954
 30
0.0
 10
166.8410397873
 20
81.3743182203
 30
0.0
 10
167.13257436
 20
81.3315191137
 30
0.0
 10
167.309226594
 20
81.2581833306
 30
0.0
 10
167.3893479886
 20
81.2119116876
 30
0.0
  0
SPLINE
  5
30E
100
AcDbEntity
  8
0
100
AcDbSpline
 62
7
  6
CONTINUOUS
 70
0
 71
3
 72
11
 73
7
 74
0
 42
0.0000001
 43
0.0000001
 44
0.0000000001
 40
0.0
 40
0.0
 40
0.0
 40
0.0
 40
0.2177830968
 40
0.450915839
 40
0.7103069095
 40
1.0
 40
1.0
 40
1.0
 40
1.0
 10
164.139418134
 20
132.7379097633
 30
0.0
 10
164.0322195552
 20
132.7998189998
 30
0.0
 10
163.8316233944
 20
132.9684234825
 30
0.0
 10
163.6180840745
 20
133.3175868141
 30
0.0
 10
163.4912612229
 20
133.7478675632
 30
0.0
 10
163.4662955903
 20
134.0610357504
 30
0.0
 10
163.4662955903
 20
134.2257018249
 30
0.0
  0
SPLINE
  5
30F
100
AcDbEntity
  8
0
100
AcDbSpline
 62
7
  6
CONTINUOUS
 70
0
 71
3
 72
15
 73
11
 74
0
 42
0.0000001
 43
0.0000001
 44
0.0000000001
 40
0.0
 40
0.0
 40
0.0
 40
0.0
 40
0.114155658
 40
0.2373279333
 40
0.3669777387
 40
0.5000016213
 40
0.633025278
 40
0.7626744253
 40
0.8858456604
 40
1.0
 40
1.0
 40
1.0
 40
1.0
 10
153.3900070307
 20
136.0015200242
 30
0.0
 10
153.3900070307
 20
136.4598679915
 30
0.0
 10
153.4739592975
 20
137.41365669
 30
0.0
 10
153.8086331015
 20
138.8525512033
 30
0.0
 10
154.3447612211
 20
140.3100369575
 30
0.0
 10
155.0623074867
 20
141.731307807
 30
0.0
 10
155.9343830779
 20
143.0633585827
 30
0.0
 10
156.92852889
 20
144.2564002288
 30
0.0
 10
158.0072998706
 20
145.2656779955
 30
0.0
 10
158.7913215044
 20
145.8152715955
 30
0.0
 10
159.1882584959
 20
146.0444419064
 30
0.0
  0
SPLINE
  5
310
100
AcDbEntity
  8
0
100
AcDbSpline
 62
7
  6
CONTINUOUS
 70
0
 71
3
 72
11
 73
7
 74
0
 42
0.0000001
 43
0.0000001
 44
0.0000000001
 40
0.0
 40
0.0
 40
0.0
 40
0.0
 40
0.2177830968
 40
0.450915839
 40
0.7103069095
 40
1.0
 40
1.0
 40
1.0
 40
1.0
 10
164.139418134
 20
75.5827405643
 30
0.0
 10
164.0322195552
 20
75.6446498007
 30
0.0
 10
163.8316233944
 20
75.8132542834
 30
0.0
 10
163.6180840745
 20
76.162417615
 30
0.0
 10
163.4912612229
 20
76.5926983641
 30
0.0
 10
163.4662955903
 20
76.9058665513
 30
0.0
 10
163.4662955903
 20
77.0705326259
 30
0.0
  0
SPLINE
  5
311
100
AcDbEntity
  8
0
100
AcDbSpline
 62
7
  6
CONTINUOUS
 70
0
 71
3
 72
9
 73
5
 74
0
 42
0.0000001
 43
0.0000001
 44
0.0000000001
 40
0.0
 40
0.0
 40
0.0
 40
0.0
 40
0.2458337269
 40
1.0
 40
1.0
 40
1.0
 40
1.0
 10
213.6366867389
 20
104.1598313353
 30
0.0
 10
213.6019655951
 20
104.1798834622
 30
0.0
 10
213.4652734831
 20
104.2692437102
 30
0.0
 10
213.3495541057
 20
104.3894206215
 30
0.0
 10
213.2779394923
 20
104.4894278233
 30
0.0
  0
SPLINE
  5
312
100
AcDbEntity
  8
0
100
AcDbSpline
 62
7
  6
CONTINUOUS
 70
0
 71
3
 72
11
 73
7
 74
0
 42
0.0000001
 43
0.0000001
 44
0.0000000001
 40
0.0
 40
0.0
 40
0.0
 40
0.0
 40
0.2177830968
 40
0.450915839
 40
0.7103069095
 40
1.0
 40
1.0
 40
1.0
 40
1.0
 10
213.6366867389
 20
161.3150005343
 30
0.0
 10
213.5294881601
 20
161.3769097708
 30
0.0
 10
213.3288919994
 20
161.5455142535
 30
0.0
 10
213.1153526794
 20
161.8946775851
 30
0.0
 10
212.9885298278
 20
162.3249583342
 30
0.0
 10
212.9635641953
 20
162.6381265214
 30
0.0
 10
212.9635641953
 20
162.8027925959
 30
0.0
  0
SPLINE
  5
313
100
AcDbEntity
  8
0
100
AcDbSpline
 62
7
  6
CONTINUOUS
 70
0
 71
3
 72
11
 73
7
 74
0
 42
0.0000001
 43
0.0000001
 44
0.0000000001
 40
0.0
 40
0.0
 40
0.0
 40
0.0
 40
0.2177709505
 40
0.4509489942
 40
0.7101987597
 40
1.0
 40
1.0
 40
1.0
 40
1.0
 10
155.0883350601
 20
76.2356199207
 30
0.0
 10
154.8178545122
 20
76.3917783644
 30
0.0
 10
154.311609867
 20
76.8171619944
 30
0.0
 10
153.7731270651
 20
77.6981326613
 30
0.0
 10
153.4527759554
 20
78.7836707577
 30
0.0
 10
153.3900070307
 20
79.5738277241
 30
0.0
 10
153.3900070307
 20
79.9894542091
 30
0.0
  0
SPLINE
  5
314
100
AcDbEntity
  8
0
100
AcDbSpline
 62
7
  6
CONTINUOUS
 70
0
 71
3
 72
11
 73
7
 74
0
 42
0.0000001
 43
0.0000001
 44
0.0000000001
 40
0.0
 40
0.0
 40
0.0
 40
0.0
 40
0.2177723674
 40
0.4509510027
 40
0.7102002307
 40
1.0
 40
1.0
 40
1.0
 40
1.0
 10
162.1594323116
 20
72.1532123754
 30
0.0
 10
162.4299038903
 20
71.9970590771
 30
0.0
 10
163.0513995558
 20
71.7713467795
 30
0.0
 10
164.0835446604
 20
71.7454976654
 30
0.0
 10
165.18377803
 20
72.0108232081
 30
0.0
 10
165.8994282012
 20
72.3515258799
 30
0.0
 10
166.2593557473
 20
72.5593289052
 30
0.0
  0
SPLINE
  5
315
100
AcDbEntity
  8
0
100
AcDbSpline
 62
7
  6
CONTINUOUS
 70
0
 71
3
 72
11
 73
7
 74
0
 42
0.0000001
 43
0.0000001
 44
0.0000000001
 40
0.0
 40
0.0
 40
0.0
 40
0.0
 40
0.2897710621
 40
0.5490628373
 40
0.782218381
 40
1.0
 40
1.0
 40
1.0
 40
1.0
 10
195.8162078239
 20
171.2739136189
 30
0.0
 10
196.0356519013
 20
171.4006089598
 30
0.0
 10
196.472041635
 20
171.6083210049
 30
0.0
 10
197.1428913029
 20
171.7701696316
 30
0.0
 10
197.7722646199
 20
171.754334895
 30
0.0
 10
198.1512132153
 20
171.6167280012
 30
0.0
 10
198.3161376821
 20
171.5215050126
 30
0.0
  0
SPLINE
  5
316
100
AcDbEntity
  8
0
100
AcDbSpline
 62
7
  6
CONTINUOUS
 70
0
 71
3
 72
11
 73
7
 74
0
 42
0.0000001
 43
0.0000001
 44
0.0000000001
 40
0.0
 40
0.0
 40
0.0
 40
0.0
 40
0.2495718911
 40
0.5121454504
 40
0.7682614652
 40
1.0
 40
1.0
 40
1.0
 40
1.0
 10
160.5473835873
 20
147.7259139511
 30
0.0
 10
160.6390956465
 20
148.2491523223
 30
0.0
 10
160.9604569963
 20
149.3013291851
 30
0.0
 10
161.7367263626
 20
150.7511289389
 30
0.0
 10
162.7485191121
 20
151.999155622
 30
0.0
 10
163.5693616644
 20
152.6562994404
 30
0.0
 10
163.9965351492
 20
152.9029266947
 30
0.0
  0
SPLINE
  5
317
100
AcDbEntity
  8
0
100
AcDbSpline
 62
7
  6
CONTINUOUS
 70
0
 71
3
 72
11
 73
7
 74
0
 42
0.0000001
 43
0.0000001
 44
0.0000000001
 40
0.0
 40
0.0
 40
0.0
 40
0.0
 40
0.2317404913
 40
0.4878572774
 40
0.7504301505
 40
1.0
 40
1.0
 40
1.0
 40
1.0
 10
149.854458405
 20
128.4079952747
 30
0.0
 10
149.854458405
 20
128.9012569864
 30
0.0
 10
150.0131398102
 20
129.9407066491
 30
0.0
 10
150.5880616736
 20
131.4409674484
 30
0.0
 10
151.4554821512
 20
132.8381397399
 30
0.0
 10
152.2060076713
 20
133.6425355051
 30
0.0
 10
152.6132862639
 20
133.9835779895
 30
0.0
  0
SPLINE
  5
318
100
AcDbEntity
  8
0
100
AcDbSpline
 62
7
  6
CONTINUOUS
 70
0
 71
3
 72
11
 73
7
 74
0
 42
0.0000001
 43
0.0000001
 44
0.0000000001
 40
0.0
 40
0.0
 40
0.0
 40
0.0
 40
0.2177801763
 40
0.4509351099
 40
0.7102274479
 40
1.0
 40
1.0
 40
1.0
 40
1.0
 10
150.8900477361
 20
89.3765037832
 30
0.0
 10
150.7251126719
 20
89.4717209812
 30
0.0
 10
150.4164525576
 20
89.7311019228
 30
0.0
 10
150.0880377949
 20
90.2682569181
 30
0.0
 10
149.8927700087
 20
90.9301817169
 30
0.0
 10
149.854458405
 20
91.4119833469
 30
0.0
 10
149.854458405
 20
91.6653865038
 30
0.0
  0
SPLINE
  5
319
100
AcDbEntity
  8
0
100
AcDbSpline
 62
7
  6
CONTINUOUS
 70
0
 71
3
 72
17
 73
13
 74
0
 42
0.0000001
 43
0.0000001
 44
0.0000000001
 40
0.0
 40
0.0
 40
0.0
 40
0.0
 40
0.0470460758
 40
0.0947344073
 40
0.143664716
 40
0.1943607224
 40
0.3024799579
 40
0.421419763
 40
0.55174622
 40
0.6927871658
 40
0.8429524441
 40
1.0
 40
1.0
 40
1.0
 40
1.0
 10
176.9275076404
 20
94.4660938954
 30
0.0
 10
177.3445807833
 20
94.2253278213
 30
0.0
 10
178.2208795997
 20
93.8008076673
 30
0.0
 10
179.6266934768
 20
93.3537387555
 30
0.0
 10
181.117263304
 20
93.0967693007
 30
0.0
 10
183.2469978651
 20
93.0076721714
 30
0.0
 10
186.0873351527
 20
93.4083106849
 30
0.0
 10
189.5570760097
 20
94.6236539723
 30
0.0
 10
193.0792717812
 20
96.5406173323
 30
0.0
 10
196.5632488369
 20
99.1057065536
 30
0.0
 10
199.9184559
 20
102.2490793148
 30
0.0
 10
201.9765216741
 20
104.6353707895
 30
0.0
 10
202.9657323221
 20
105.9025755477
 30
0.0
  0
SPLINE
  5
31A
100
AcDbEntity
  8
0
100
AcDbSpline
 62
7
  6
CONTINUOUS
 70
0
 71
3
 72
11
 73
7
 74
0
 42
0.0000001
 43
0.0000001
 44
0.0000000001
 40
0.0
 40
0.0
 40
0.0
 40
0.0
 40
0.2659768728
 40
0.5230272229
 40
0.7684430331
 40
1.0
 40
1.0
 40
1.0
 40
1.0
 10
210.0302824879
 20
118.1301167674
 30
0.0
 10
210.528945488
 20
119.3607323133
 30
0.0
 10
211.4122481109
 20
121.8216416405
 30
0.0
 10
212.3932404195
 20
125.535537035
 30
0.0
 10
212.9950270371
 20
129.1557466743
 30
0.0
 10
213.1403519305
 20
131.5383203012
 30
0.0
 10
213.1403519305
 20
132.6942992181
 30
0.0
  0
SPLINE
  5
31B
100
AcDbEntity
  8
0
100
AcDbSpline
 62
7
  6
CONTINUOUS
 70
0
 71
3
 72
11
 73
7
 74
0
 42
0.0000001
 43
0.0000001
 44
0.0000000001
 40
0.0
 40
0.0
 40
0.0
 40
0.0
 40
0.289799778
 40
0.5490490151
 40
0.7822276429
 40
1.0
 40
1.0
 40
1.0
 40
1.0
 10
207.6955817287
 20
174.049990862
 30
0.0
 10
208.0555092854
 20
174.2577938933
 30
0.0
 10
208.771159485
 20
174.5984965648
 30
0.0
 10
209.8713928668
 20
174.8638221096
 30
0.0
 10
210.9035379655
 20
174.8379729778
 30
0.0
 10
211.5250335845
 20
174.6122606579
 30
0.0
 10
211.7955051645
 20
174.4561073917
 30
0.0
  0
SPLINE
  5
31C
100
AcDbEntity
  8
0
100
AcDbSpline
 62
7
  6
CONTINUOUS
 70
0
 71
3
 72
17
 73
13
 74
0
 42
0.0000001
 43
0.0000001
 44
0.0000000001
 40
0.0
 40
0.0
 40
0.0
 40
0.0
 40
0.1286933065
 40
0.2702801751
 40
0.4174384432
 40
0.5617797022
 40
0.6954488753
 40
0.8127120148
 40
0.8646745954
 40
0.9125103814
 40
0.9571382807
 40
1.0
 40
1.0
 40
1.0
 40
1.0
 10
168.0624705322
 20
79.724119626
 30
0.0
 10
168.0624705322
 20
79.4463172166
 30
0.0
 10
167.9847639636
 20
78.8622118014
 30
0.0
 10
167.6946739009
 20
78.0045860035
 30
0.0
 10
167.2477183575
 20
77.1784192524
 30
0.0
 10
166.6797696648
 20
76.4514632979
 30
0.0
 10
166.0372744963
 20
75.8824393795
 30
0.0
 10
165.4557404023
 20
75.5644189533
 30
0.0
 10
165.0008215217
 20
75.4434281565
 30
0.0
 10
164.6877263352
 20
75.4203340316
 30
0.0
 10
164.3961917625
 20
75.4631331382
 30
0.0
 10
164.2195395285
 20
75.5364689213
 30
0.0
 10
164.139418134
 20
75.5827405643
 30
0.0
  0
SPLINE
  5
31D
100
AcDbEntity
  8
0
100
AcDbSpline
 62
7
  6
CONTINUOUS
 70
0
 71
3
 72
11
 73
7
 74
0
 42
0.0000001
 43
0.0000001
 44
0.0000000001
 40
0.0
 40
0.0
 40
0.0
 40
0.0
 40
0.2177830968
 40
0.450915839
 40
0.7103069095
 40
1.0
 40
1.0
 40
1.0
 40
1.0
 10
216.8866165936
 20
109.7890024586
 30
0.0
 10
216.9938151724
 20
109.7270932222
 30
0.0
 10
217.1944113331
 20
109.5584887395
 30
0.0
 10
217.4079506531
 20
109.2093254079
 30
0.0
 10
217.5347735047
 20
108.7790446588
 30
0.0
 10
217.5597391372
 20
108.4658764716
 30
0.0
 10
217.5597391372
 20
108.301210397
 30
0.0
  0
SPLINE
  5
31E
100
AcDbEntity
  8
0
100
AcDbSpline
 62
7
  6
CONTINUOUS
 70
0
 71
3
 72
11
 73
7
 74
0
 42
0.0000001
 43
0.0000001
 44
0.0000000001
 40
0.0
 40
0.0
 40
0.0
 40
0.0
 40
0.2898012489
 40
0.5490510236
 40
0.7822290598
 40
1.0
 40
1.0
 40
1.0
 40
1.0
 10
160.4611042822
 20
75.9070466639
 30
0.0
 10
160.4611042822
 20
75.4914201667
 30
0.0
 10
160.5238732215
 20
74.701263176
 30
0.0
 10
160.8442243354
 20
73.6157250679
 30
0.0
 10
161.3827071497
 20
72.7347544148
 30
0.0
 10
161.8889517909
 20
72.3093708363
 30
0.0
 10
162.1594323116
 20
72.1532123754
 30
0.0
  0
SPLINE
  5
31F
100
AcDbEntity
  8
0
100
AcDbSpline
 62
7
  6
CONTINUOUS
 70
0
 71
3
 72
11
 73
7
 74
0
 42
0.0000001
 43
0.0000001
 44
0.0000000001
 40
0.0
 40
0.0
 40
0.0
 40
0.0
 40
0.2177830968
 40
0.450915839
 40
0.7103069095
 40
1.0
 40
1.0
 40
1.0
 40
1.0
 10
216.8866165936
 20
166.9441716577
 30
0.0
 10
216.9938151724
 20
166.8822624213
 30
0.0
 10
217.1944113331
 20
166.7136579386
 30
0.0
 10
217.4079506531
 20
166.364494607
 30
0.0
 10
217.5347735047
 20
165.9342138579
 30
0.0
 10
217.5597391372
 20
165.6210456706
 30
0.0
 10
217.5597391372
 20
165.4563795961
 30
0.0
  0
SPLINE
  5
320
100
AcDbEntity
  8
0
100
AcDbSpline
 62
7
  6
CONTINUOUS
 70
0
 71
3
 72
24
 73
20
 74
0
 42
0.0000001
 43
0.0000001
 44
0.0000000001
 40
0.0
 40
0.0
 40
0.0
 40
0.0
 40
0.0213337567
 40
0.0428958398
 40
0.0874738268
 40
0.1352524067
 40
0.1871570235
 40
0.2435986869
 40
0.3045508914
 40
0.3696432797
 40
0.4382455054
 40
0.5095371747
 40
0.5825668228
 40
0.6563038798
 40
0.7296865655
 40
0.8016685554
 40
0.8712667296
 40
0.9376114098
 40
1.0
 40
1.0
 40
1.0
 40
1.0
 10
206.9269659877
 20
146.4278553085
 30
0.0
 10
206.5583835846
 20
146.6406288703
 30
0.0
 10
205.7888996141
 20
147.0214009603
 30
0.0
 10
204.136097205
 20
147.5930810293
 30
0.0
 10
201.8649105385
 20
147.9273969897
 30
0.0
 10
198.975975166
 20
147.7139604668
 30
0.0
 10
195.9511095719
 20
146.9105365333
 30
0.0
 10
192.8514806661
 20
145.5405034092
 30
0.0
 10
189.7382541376
 20
143.6358511127
 30
0.0
 10
186.674828549
 20
141.2374996228
 30
0.0
 10
183.7247637961
 20
138.3963011024
 30
0.0
 10
180.9501577109
 20
135.1724717784
 30
0.0
 10
178.4098695983
 20
131.6345473973
 30
0.0
 10
176.1580158203
 20
127.8579250725
 30
0.0
 10
174.2426264475
 20
123.9231530311
 30
0.0
 10
172.7045601979
 20
119.9141828161
 30
0.0
 10
171.5765499566
 20
115.9159847511
 30
0.0
 10
170.8827336971
 20
112.0140669082
 30
0.0
 10
170.7141216976
 20
109.4442440482
 30
0.0
 10
170.7141216976
 20
108.1996499858
 30
0.0
  0
SPLINE
  5
321
100
AcDbEntity
  8
0
100
AcDbSpline
 62
7
  6
CONTINUOUS
 70
0
 71
3
 72
11
 73
7
 74
0
 42
0.0000001
 43
0.0000001
 44
0.0000000001
 40
0.0
 40
0.0
 40
0.0
 40
0.0
 40
0.2177723674
 40
0.4509510027
 40
0.7102002307
 40
1.0
 40
1.0
 40
1.0
 40
1.0
 10
218.866602416
 20
170.3736998465
 30
0.0
 10
218.5961308372
 20
170.5298531448
 30
0.0
 10
217.9746351717
 20
170.7555654424
 30
0.0
 10
216.9424900671
 20
170.7814145566
 30
0.0
 10
215.8422566975
 20
170.5160890139
 30
0.0
 10
215.1266065264
 20
170.175386342
 30
0.0
 10
214.7666789802
 20
169.9675833168
 30
0.0
  0
SPLINE
  5
322
100
AcDbEntity
  8
0
100
AcDbSpline
 62
7
  6
CONTINUOUS
 70
0
 71
3
 72
24
 73
20
 74
0
 42
0.0000001
 43
0.0000001
 44
0.0000000001
 40
0.0
 40
0.0
 40
0.0
 40
0.0
 40
0.0623884177
 40
0.1287327202
 40
0.1983306326
 40
0.2703124927
 40
0.343695351
 40
0.4174326981
 40
0.4904625163
 40
0.5617542301
 40
0.6303564953
 40
0.6954489519
 40
0.7564012195
 40
0.8128429324
 40
0.8647476095
 40
0.9125262532
 40
0.9571042449
 40
0.9786662918
 40
1.0
 40
1.0
 40
1.0
 40
1.0
 10
169.2999022473
 20
109.0161314948
 30
0.0
 10
169.2999022473
 20
110.2607221279
 30
0.0
 10
169.4685123556
 20
112.8305341012
 30
0.0
 10
170.1623245076
 20
116.7324361508
 30
0.0
 10
171.2903251806
 20
120.7306209368
 30
0.0
 10
172.8283861493
 20
124.7395885759
 30
0.0
 10
174.7437742601
 20
128.6743686919
 30
0.0
 10
176.9956322504
 20
132.4510033382
 30
0.0
 10
179.5359246053
 20
135.988937146
 30
0.0
 10
182.3105328286
 20
139.2127713897
 30
0.0
 10
185.2605988193
 20
142.0539730775
 30
0.0
 10
188.3240264087
 20
144.452327626
 30
0.0
 10
191.4372556029
 20
146.3569826203
 30
0.0
 10
194.5368874577
 20
147.727017642
 30
0.0
 10
197.5617565289
 20
148.5304427846
 30
0.0
 10
200.4506943792
 20
148.7438781661
 30
0.0
 10
202.7218822826
 20
148.4095629745
 30
0.0
 10
204.3746816137
 20
147.8378792898
 30
0.0
 10
205.1441650683
 20
147.4571101048
 30
0.0
 10
205.5127466208
 20
147.2443369956
 30
0.0
  0
SPLINE
  5
323
100
AcDbEntity
  8
0
100
AcDbSpline
 62
7
  6
CONTINUOUS
 70
0
 71
3
 72
14
 73
10
 74
0
 42
0.0000001
 43
0.0000001
 44
0.0000000001
 40
0.0
 40
0.0
 40
0.0
 40
0.0
 40
0.2892811527
 40
0.4225393337
 40
0.5484966937
 40
0.6678951432
 40
0.7818688351
 40
0.8919525302
 40
1.0
 40
1.0
 40
1.0
 40
1.0
 10
170.7141216976
 20
108.1996499858
 30
0.0
 10
170.7141216976
 20
106.6790228031
 30
0.0
 10
170.891658258
 20
104.4469970302
 30
0.0
 10
171.5778308775
 20
101.6415546395
 30
0.0
 10
172.2759859868
 20
99.7721585317
 30
0.0
 10
173.1657305876
 20
98.099239716
 30
0.0
 10
174.2403777589
 20
96.6396580349
 30
0.0
 10
175.489982326
 20
95.4099909581
 30
0.0
 10
176.4356245211
 20
94.75004593
 30
0.0
 10
176.9275076404
 20
94.4660938954
 30
0.0
  0
SPLINE
  5
324
100
AcDbEntity
  8
0
100
AcDbSpline
 62
7
  6
CONTINUOUS
 70
0
 71
3
 72
17
 73
13
 74
0
 42
0.0000001
 43
0.0000001
 44
0.0000000001
 40
0.0
 40
0.0
 40
0.0
 40
0.0
 40
0.1286933065
 40
0.2702801751
 40
0.4174384432
 40
0.5617797022
 40
0.6954488753
 40
0.8127120148
 40
0.8646745954
 40
0.9125103814
 40
0.9571382807
 40
1.0
 40
1.0
 40
1.0
 40
1.0
 10
217.5597391372
 20
108.301210397
 30
0.0
 10
217.5597391372
 20
108.0234079876
 30
0.0
 10
217.4820325686
 20
107.4393025724
 30
0.0
 10
217.1919425059
 20
106.5816767745
 30
0.0
 10
216.7449869625
 20
105.7555100234
 30
0.0
 10
216.1770382698
 20
105.0285540689
 30
0.0
 10
215.5345431012
 20
104.4595301505
 30
0.0
 10
214.9530090072
 20
104.1415097243
 30
0.0
 10
214.4980901267
 20
104.0205189275
 30
0.0
 10
214.1849949402
 20
103.9974248026
 30
0.0
 10
213.8934603675
 20
104.0402239092
 30
0.0
 10
213.7168081335
 20
104.1135596923
 30
0.0
 10
213.6366867389
 20
104.1598313353
 30
0.0
  0
SPLINE
  5
325
100
AcDbEntity
  8
0
100
AcDbSpline
 62
7
  6
CONTINUOUS
 70
0
 71
3
 72
14
 73
10
 74
0
 42
0.0000001
 43
0.0000001
 44
0.0000000001
 40
0.0
 40
0.0
 40
0.0
 40
0.0
 40
0.1080469037
 40
0.2181301649
 40
0.3321037019
 40
0.4515022972
 40
0.5774597547
 40
0.7107183252
 40
1.0
 40
1.0
 40
1.0
 40
1.0
 10
175.5132881067
 20
95.2825752263
 30
0.0
 10
175.0214076089
 20
95.5665257989
 30
0.0
 10
174.07577054
 20
96.2264688415
 30
0.0
 10
172.8261693478
 20
97.4561300639
 30
0.0
 10
171.7515191812
 20
98.9157067621
 30
0.0
 10
170.8617755481
 20
100.58862656
 30
0.0
 10
170.1636143928
 20
102.4580237407
 30
0.0
 10
169.4774400939
 20
105.2634713084
 30
0.0
 10
169.2999022473
 20
107.4955016357
 30
0.0
 10
169.2999022473
 20
109.0161314948
 30
0.0
  0
SPLINE
  5
326
100
AcDbEntity
  8
0
100
AcDbSpline
 62
7
  6
CONTINUOUS
 70
0
 71
3
 72
15
 73
11
 74
0
 42
0.0000001
 43
0.0000001
 44
0.0000000001
 40
0.0
 40
0.0
 40
0.0
 40
0.0
 40
0.1141543519
 40
0.237325601
 40
0.366974755
 40
0.4999984147
 40
0.6330222943
 40
0.7626720931
 40
0.8858443543
 40
1.0
 40
1.0
 40
1.0
 40
1.0
 10
166.2593557473
 20
141.9620343612
 30
0.0
 10
165.8624187131
 20
141.7328640256
 30
0.0
 10
165.0783970021
 20
141.1832703492
 30
0.0
 10
163.9996259374
 20
140.1739924778
 30
0.0
 10
163.0054801035
 20
138.9809507246
 30
0.0
 10
162.1334045321
 20
137.6488999048
 30
0.0
 10
161.4158583145
 20
136.2276290602
 30
0.0
 10
160.8797302767
 20
134.7701433784
 30
0.0
 10
160.5450565214
 20
133.3312489905
 30
0.0
 10
160.4611042822
 20
132.3774603968
 30
0.0
 10
160.4611042822
 20
131.919112479
 30
0.0
  0
SPLINE
  5
327
100
AcDbEntity
  8
0
100
AcDbSpline
 62
7
  6
CONTINUOUS
 70
0
 71
3
 72
11
 73
7
 74
0
 42
0.0000001
 43
0.0000001
 44
0.0000000001
 40
0.0
 40
0.0
 40
0.0
 40
0.0
 40
0.2177830968
 40
0.450915839
 40
0.7103069095
 40
1.0
 40
1.0
 40
1.0
 40
1.0
 10
167.3893479886
 20
138.3670808867
 30
0.0
 10
167.4965465674
 20
138.3051716503
 30
0.0
 10
167.6971427281
 20
138.1365671676
 30
0.0
 10
167.9106820481
 20
137.787403836
 30
0.0
 10
168.0375048997
 20
137.3571230869
 30
0.0
 10
168.0624705322
 20
137.0439548996
 30
0.0
 10
168.0624705322
 20
136.8792888251
 30
0.0
  0
SPLINE
  5
328
100
AcDbEntity
  8
0
100
AcDbSpline
 62
7
  6
CONTINUOUS
 70
0
 71
3
 72
17
 73
13
 74
0
 42
0.0000001
 43
0.0000001
 44
0.0000000001
 40
0.0
 40
0.0
 40
0.0
 40
0.0
 40
0.1286933065
 40
0.2702801751
 40
0.4174384432
 40
0.5617797022
 40
0.6954488753
 40
0.8127120148
 40
0.8646745954
 40
0.9125103814
 40
0.9571382807
 40
1.0
 40
1.0
 40
1.0
 40
1.0
 10
217.5597391372
 20
165.4563795961
 30
0.0
 10
217.5597391372
 20
165.1785771867
 30
0.0
 10
217.4820325686
 20
164.5944717714
 30
0.0
 10
217.1919425059
 20
163.7368459736
 30
0.0
 10
216.7449869625
 20
162.9106792224
 30
0.0
 10
216.1770382698
 20
162.183723268
 30
0.0
 10
215.5345431012
 20
161.6146993496
 30
0.0
 10
214.9530090072
 20
161.2966789234
 30
0.0
 10
214.4980901267
 20
161.1756881266
 30
0.0
 10
214.1849949402
 20
161.1525940017
 30
0.0
 10
213.8934603675
 20
161.1953931082
 30
0.0
 10
213.7168081335
 20
161.2687288914
 30
0.0
 10
213.6366867389
 20
161.3150005343
 30
0.0
  0
SPLINE
  5
329
100
AcDbEntity
  8
0
100
AcDbSpline
 62
7
  6
CONTINUOUS
 70
0
 71
3
 72
11
 73
7
 74
0
 42
0.0000001
 43
0.0000001
 44
0.0000000001
 40
0.0
 40
0.0
 40
0.0
 40
0.0
 40
0.2177830968
 40
0.450915839
 40
0.7103069095
 40
1.0
 40
1.0
 40
1.0
 40
1.0
 10
167.3893479886
 20
81.2119116876
 30
0.0
 10
167.4965465674
 20
81.1500024512
 30
0.0
 10
167.6971427281
 20
80.9813979685
 30
0.0
 10
167.9106820481
 20
80.6322346369
 30
0.0
 10
168.0375048997
 20
80.2019538878
 30
0.0
 10
168.0624705322
 20
79.8887857006
 30
0.0
 10
168.0624705322
 20
79.724119626
 30
0.0
  0
SPLINE
  5
32A
100
AcDbEntity
  8
0
100
AcDbSpline
 62
7
  6
CONTINUOUS
 70
0
 71
3
 72
17
 73
13
 74
0
 42
0.0000001
 43
0.0000001
 44
0.0000000001
 40
0.0
 40
0.0
 40
0.0
 40
0.0
 40
0.1286933065
 40
0.2702801751
 40
0.4174384432
 40
0.5617797022
 40
0.6954488753
 40
0.8127120148
 40
0.8646745954
 40
0.9125103814
 40
0.9571382807
 40
1.0
 40
1.0
 40
1.0
 40
1.0
 10
168.0624705322
 20
136.8792888251
 30
0.0
 10
168.0624705322
 20
136.6014864157
 30
0.0
 10
167.9847639636
 20
136.0173810004
 30
0.0
 10
167.6946739009
 20
135.1597552026
 30
0.0
 10
167.2477183575
 20
134.3335884514
 30
0.0
 10
166.6797696648
 20
133.606632497
 30
0.0
 10
166.0372744963
 20
133.0376085786
 30
0.0
 10
165.4557404023
 20
132.7195881524
 30
0.0
 10
165.0008215217
 20
132.5985973556
 30
0.0
 10
164.6877263352
 20
132.5755032307
 30
0.0
 10
164.3961917625
 20
132.6183023372
 30
0.0
 10
164.2195395285
 20
132.6916381204
 30
0.0
 10
164.139418134
 20
132.7379097633
 30
0.0
  0
SPLINE
  5
32B
100
AcDbEntity
  8
0
100
AcDbSpline
 62
7
  6
CONTINUOUS
 70
0
 71
3
 72
11
 73
7
 74
0
 42
0.0000001
 43
0.0000001
 44
0.0000000001
 40
0.0
 40
0.0
 40
0.0
 40
0.0
 40
0.2372398078
 40
0.4999994051
 40
0.7627593222
 40
1.0
 40
1.0
 40
1.0
 40
1.0
 10
82.1839582023
 20
197.8502295018
 30
0.0
 10
81.8827909518
 20
197.6763515466
 30
0.0
 10
81.1824303879
 20
197.4226224988
 30
0.0
 10
80.0626414515
 20
197.3010580583
 30
0.0
 10
78.942850663
 20
197.4226172928
 30
0.0
 10
78.242487124
 20
197.6763428827
 30
0.0
 10
77.9413175153
 20
197.8502193038
 30
0.0
  0
SPLINE
  5
32C
100
AcDbEntity
  8
0
100
AcDbSpline
 62
7
  6
CONTINUOUS
 70
0
 71
3
 72
9
 73
5
 74
0
 42
0.0000001
 43
0.0000001
 44
0.0000000001
 40
0.0
 40
0.0
 40
0.0
 40
0.0
 40
0.2456835789
 40
1.0
 40
1.0
 40
1.0
 40
1.0
 10
119.2663305226
 20
219.9770524436
 30
0.0
 10
119.2663305121
 20
219.9393179979
 30
0.0
 10
119.2576586692
 20
219.7857642703
 30
0.0
 10
119.2132437691
 20
219.6349354513
 30
0.0
 10
119.1645847097
 20
219.5297940435
 30
0.0
  0
SPLINE
  5
32D
100
AcDbEntity
  8
0
100
AcDbSpline
 62
7
  6
CONTINUOUS
 70
0
 71
3
 72
9
 73
5
 74
0
 42
0.0000001
 43
0.0000001
 44
0.0000000001
 40
0.0
 40
0.0
 40
0.0
 40
0.0
 40
0.2244719364
 40
1.0
 40
1.0
 40
1.0
 40
1.0
 10
119.1645847097
 20
219.5297940435
 30
0.0
 10
119.1297206307
 20
219.4544605211
 30
0.0
 10
118.939268081
 20
219.1348275421
 30
0.0
 10
118.6360432389
 20
218.8957249856
 30
0.0
 10
118.3876746677
 20
218.75233018
 30
0.0
  0
SPLINE
  5
32E
100
AcDbEntity
  8
0
100
AcDbSpline
 62
7
  6
CONTINUOUS
 70
0
 71
3
 72
9
 73
5
 74
0
 42
0.0000001
 43
0.0000001
 44
0.0000000001
 40
0.0
 40
0.0
 40
0.0
 40
0.0
 40
0.2349022509
 40
1.0
 40
1.0
 40
1.0
 40
1.0
 10
77.9413175153
 20
220.9572377085
 30
0.0
 10
78.0147508499
 20
220.9148419121
 30
0.0
 10
78.3355200785
 20
220.7485673782
 30
0.0
 10
78.6822546819
 20
220.6351157315
 30
0.0
 10
78.951393002
 20
220.573154911
 30
0.0
  0
SPLINE
  5
32F
100
AcDbEntity
  8
0
100
AcDbSpline
 62
7
  6
CONTINUOUS
 70
0
 71
3
 72
9
 73
5
 74
0
 42
0.0000001
 43
0.0000001
 44
0.0000000001
 40
0.0
 40
0.0
 40
0.0
 40
0.0
 40
0.2465708886
 40
1.0
 40
1.0
 40
1.0
 40
1.0
 10
78.951393002
 20
220.573154911
 30
0.0
 10
78.9944567593
 20
220.5632408053
 30
0.0
 10
79.1696914513
 20
220.5256013101
 30
0.0
 10
79.3470806351
 20
220.4980942245
 30
0.0
 10
79.4812413815
 20
220.4828066114
 30
0.0
  0
SPLINE
  5
330
100
AcDbEntity
  8
0
100
AcDbSpline
 62
7
  6
CONTINUOUS
 70
0
 71
3
 72
9
 73
5
 74
0
 42
0.0000001
 43
0.0000001
 44
0.0000000001
 40
0.0
 40
0.0
 40
0.0
 40
0.0
 40
0.2532154778
 40
1.0
 40
1.0
 40
1.0
 40
1.0
 10
80.6439872177
 20
220.4828032548
 30
0.0
 10
80.6890725196
 20
220.4879404521
 30
0.0
 10
80.8668373282
 20
220.5106434068
 30
0.0
 10
81.0433767566
 20
220.5431162852
 30
0.0
 10
81.1737920316
 20
220.5731381046
 30
0.0
  0
SPLINE
  5
331
100
AcDbEntity
  8
0
100
AcDbSpline
 62
7
  6
CONTINUOUS
 70
0
 71
3
 72
9
 73
5
 74
0
 42
0.0000001
 43
0.0000001
 44
0.0000000001
 40
0.0
 40
0.0
 40
0.0
 40
0.0
 40
0.2642673046
 40
1.0
 40
1.0
 40
1.0
 40
1.0
 10
81.1737920316
 20
220.5731381046
 30
0.0
 10
81.2667478842
 20
220.5945367008
 30
0.0
 10
81.6156463931
 20
220.6866300979
 30
0.0
 10
81.9539743493
 20
220.8244674597
 30
0.0
 10
82.1839582023
 20
220.9572479066
 30
0.0
  0
SPLINE
  5
332
100
AcDbEntity
  8
0
100
AcDbSpline
 62
7
  6
CONTINUOUS
 70
0
 71
3
 72
9
 73
5
 74
0
 42
0.0000001
 43
0.0000001
 44
0.0000000001
 40
0.0
 40
0.0
 40
0.0
 40
0.0
 40
0.2604112263
 40
1.0
 40
1.0
 40
1.0
 40
1.0
 10
119.0529350978
 20
242.4425076021
 30
0.0
 10
119.0736767749
 20
242.4725385177
 30
0.0
 10
119.1489437763
 20
242.5907638442
 30
0.0
 10
119.2051174227
 20
242.7216133631
 30
0.0
 10
119.2316925841
 20
242.8218048609
 30
0.0
  0
SPLINE
  5
333
100
AcDbEntity
  8
0
100
AcDbSpline
 62
7
  6
CONTINUOUS
 70
0
 71
3
 72
9
 73
5
 74
0
 42
0.0000001
 43
0.0000001
 44
0.0000000001
 40
0.0
 40
0.0
 40
0.0
 40
0.0
 40
0.2527278947
 40
1.0
 40
1.0
 40
1.0
 40
1.0
 10
119.2316925841
 20
242.8218048609
 30
0.0
 10
119.2374151766
 20
242.8433797104
 30
0.0
 10
119.2574026297
 20
242.929426178
 30
0.0
 10
119.2663305349
 20
243.0180718832
 30
0.0
 10
119.2663305226
 20
243.0840708483
 30
0.0
  0
SPLINE
  5
334
100
AcDbEntity
  8
0
100
AcDbSpline
 62
7
  6
CONTINUOUS
 70
0
 71
3
 72
11
 73
7
 74
0
 42
0.0000001
 43
0.0000001
 44
0.0000000001
 40
0.0
 40
0.0
 40
0.0
 40
0.0
 40
0.2177801763
 40
0.4509351099
 40
0.7102274479
 40
1.0
 40
1.0
 40
1.0
 40
1.0
 10
84.4217335722
 20
127.7511347081
 30
0.0
 10
84.2567985081
 20
127.8463519061
 30
0.0
 10
83.9481383938
 20
128.1057328477
 30
0.0
 10
83.6197236311
 20
128.642887843
 30
0.0
 10
83.4244558449
 20
129.3048126418
 30
0.0
 10
83.3861442412
 20
129.7866142718
 30
0.0
 10
83.3861442412
 20
130.0400174287
 30
0.0
  0
SPLINE
  5
335
100
AcDbEntity
  8
0
100
AcDbSpline
 62
7
  6
CONTINUOUS
 70
0
 71
3
 72
11
 73
7
 74
0
 42
0.0000001
 43
0.0000001
 44
0.0000000001
 40
0.0
 40
0.0
 40
0.0
 40
0.0
 40
0.2897710621
 40
0.5490628373
 40
0.782218381
 40
1.0
 40
1.0
 40
1.0
 40
1.0
 10
129.3478936601
 20
209.6485445438
 30
0.0
 10
129.5673377375
 20
209.7752398847
 30
0.0
 10
130.0037274712
 20
209.9829519298
 30
0.0
 10
130.6745771391
 20
210.1448005565
 30
0.0
 10
131.303950456
 20
210.1289658199
 30
0.0
 10
131.6828990514
 20
209.9913589261
 30
0.0
 10
131.8478235183
 20
209.8961359375
 30
0.0
  0
SPLINE
  5
336
100
AcDbEntity
  8
0
100
AcDbSpline
 62
7
  6
CONTINUOUS
 70
0
 71
3
 72
11
 73
7
 74
0
 42
0.0000001
 43
0.0000001
 44
0.0000000001
 40
0.0
 40
0.0
 40
0.0
 40
0.0
 40
0.2495718911
 40
0.5121454504
 40
0.7682614652
 40
1.0
 40
1.0
 40
1.0
 40
1.0
 10
94.0790694235
 20
186.100544876
 30
0.0
 10
94.1707814827
 20
186.6237832472
 30
0.0
 10
94.4921428325
 20
187.67596011
 30
0.0
 10
95.2684121988
 20
189.1257598638
 30
0.0
 10
96.2802049483
 20
190.3737865469
 30
0.0
 10
97.1010475006
 20
191.0309303653
 30
0.0
 10
97.5282209854
 20
191.2775576196
 30
0.0
  0
SPLINE
  5
337
100
AcDbEntity
  8
0
100
AcDbSpline
 62
7
  6
CONTINUOUS
 70
0
 71
3
 72
11
 73
7
 74
0
 42
0.0000001
 43
0.0000001
 44
0.0000000001
 40
0.0
 40
0.0
 40
0.0
 40
0.0
 40
0.2434006546
 40
0.4999988583
 40
0.7565976583
 40
1.0
 40
1.0
 40
1.0
 40
1.0
 10
90.0032886849
 20
175.589043771
 30
0.0
 10
90.4093152528
 20
175.9290378486
 30
0.0
 10
91.1723085492
 20
176.7146216124
 30
0.0
 10
92.1097232433
 20
178.0759724483
 30
0.0
 10
92.8199743253
 20
179.5684796983
 30
0.0
 10
93.118810802
 20
180.6220487969
 30
0.0
 10
93.2102409667
 20
181.1436788951
 30
0.0
  0
SPLINE
  5
338
100
AcDbEntity
  8
0
100
AcDbSpline
 62
7
  6
CONTINUOUS
 70
0
 71
3
 72
11
 73
7
 74
0
 42
0.0000001
 43
0.0000001
 44
0.0000000001
 40
0.0
 40
0.0
 40
0.0
 40
0.0
 40
0.2317404913
 40
0.4878572774
 40
0.7504301505
 40
1.0
 40
1.0
 40
1.0
 40
1.0
 10
83.3861442412
 20
166.7826261996
 30
0.0
 10
83.3861442412
 20
167.2758879113
 30
0.0
 10
83.5448256464
 20
168.315337574
 30
0.0
 10
84.1197475098
 20
169.8155983733
 30
0.0
 10
84.9871679874
 20
171.2127706648
 30
0.0
 10
85.7376935075
 20
172.01716643
 30
0.0
 10
86.1449721001
 20
172.3582089144
 30
0.0
  0
SPLINE
  5
339
100
AcDbEntity
  8
0
100
AcDbSpline
 62
7
  6
CONTINUOUS
 70
0
 71
3
 72
9
 73
5
 74
0
 42
0.0000001
 43
0.0000001
 44
0.0000000001
 40
0.0
 40
0.0
 40
0.0
 40
0.0
 40
0.5128299243
 40
1.0
 40
1.0
 40
1.0
 40
1.0
 10
150.2066607787
 20
90.0924451975
 30
0.0
 10
150.289189348
 20
89.9429178012
 30
0.0
 10
150.484696622
 20
89.6681953807
 30
0.0
 10
150.7495365556
 20
89.4576210721
 30
0.0
 10
150.8900477411
 20
89.3765037914
 30
0.0
  0
SPLINE
  5
33A
100
AcDbEntity
  8
0
100
AcDbSpline
 62
7
  6
CONTINUOUS
 70
0
 71
3
 72
9
 73
5
 74
0
 42
0.0000001
 43
0.0000001
 44
0.0000000001
 40
0.0
 40
0.0
 40
0.0
 40
0.0
 40
0.4871718667
 40
1.0
 40
1.0
 40
1.0
 40
1.0
 10
198.3161376867
 20
171.521505021
 30
0.0
 10
198.1756417508
 20
171.6026236427
 30
0.0
 10
197.8608843024
 20
171.7266817054
 30
0.0
 10
197.5252421362
 20
171.7586362322
 30
0.0
 10
197.3544976907
 20
171.7553475149
 30
0.0
  0
SPLINE
  5
33B
100
AcDbEntity
  8
0
100
AcDbSpline
 62
7
  6
CONTINUOUS
 70
0
 71
3
 72
9
 73
5
 74
0
 42
0.0000001
 43
0.0000001
 44
0.0000000001
 40
0.0
 40
0.0
 40
0.0
 40
0.0
 40
0.2466708782
 40
1.0
 40
1.0
 40
1.0
 40
1.0
 10
162.4582500415
 20
151.6081124596
 30
0.0
 10
162.398349521
 20
151.5400995788
 30
0.0
 10
162.1603898946
 20
151.2601111853
 30
0.0
 10
161.941624813
 20
150.9638791851
 30
0.0
 10
161.7881606512
 20
150.7335367451
 30
0.0
  0
SPLINE
  5
33C
100
AcDbEntity
  8
0
100
AcDbSpline
 62
7
  6
CONTINUOUS
 70
0
 71
3
 72
9
 73
5
 74
0
 42
0.0000001
 43
0.0000001
 44
0.0000000001
 40
0.0
 40
0.0
 40
0.0
 40
0.0
 40
0.2529535339
 40
1.0
 40
1.0
 40
1.0
 40
1.0
 10
150.6290157853
 20
131.4052235722
 30
0.0
 10
150.5877990902
 20
131.3219247488
 30
0.0
 10
150.4302691812
 20
130.9899793001
 30
0.0
 10
150.2943346513
 20
130.6477095131
 30
0.0
 10
150.2066584791
 20
130.3876156025
 30
0.0
  0
ELLIPSE
  5
33D
100
AcDbEntity
  8
0
100
AcDbEllipse
 62
7
  6
CONTINUOUS
 10
231.4733177833
 20
83.3488756416
 30
0.0
 11
-191.5312592708
 21
234.963531181
 31
0.0
 40
0.438137976
 41
0.9174822473
 42
0.9248822729
  0
ELLIPSE
  5
33E
100
AcDbEntity
  8
0
100
AcDbEllipse
 62
7
  6
CONTINUOUS
 10
103.4677071593
 20
153.1378863556
 30
0.0
 11
59.8499961587
 21
-9.6778015949
 31
0.0
 40
0.4381204127
 41
-2.8233236748
 42
-2.6480758869
  0
ELLIPSE
  5
33F
100
AcDbEntity
  8
0
100
AcDbEllipse
 62
7
  6
CONTINUOUS
 10
180.5475899014
 20
42.4343914186
 30
0.0
 11
871.935592654
 21
710.7610326789
 31
0.0
 40
0.1863610854
 41
1.571289078
 42
1.5746531597
  0
ELLIPSE
  5
340
100
AcDbEntity
  8
0
100
AcDbEllipse
 62
7
  6
CONTINUOUS
 10
103.4677071593
 20
218.474871423
 30
0.0
 11
59.124567494
 21
14.9102965783
 31
0.0
 40
0.6848977203
 41
-3.1073452867
 42
-2.8898353134
  0
ELLIPSE
  5
341
100
AcDbEntity
  8
0
100
AcDbEllipse
 62
7
  6
CONTINUOUS
 10
80.1333394106
 20
202.4941777656
 30
0.0
 11
1.9660993352
 21
12.158860306
 31
0.0
 40
0.1863606599
 41
-3.2123189773
 42
-2.3178748399
  0
ENDSEC
  0
SECTION
  2
OBJECTS
  0
DICTIONARY
  5
C
100
AcDbDictionary
280
0
281
1
  3
ACAD_GROUP
350
D
  3
ACAD_MLINESTYLE
350
17
  3
ACAD_LAYOUT
350
1A
  3
ACAD_PLOTSETTINGS
350
19
  3
ACAD_PLOTSTYLENAME
350
E
  0
DICTIONARY
  5
D
102
{ACAD_REACTORS
330
C
102
}
100
AcDbDictionary
280
0
281
1
  0
ACDBDICTIONARYWDFLT
  5
E
102
{ACAD_REACTORS
330
C
102
}
100
AcDbDictionary
281
1
  3
Normal
350
F
100
AcDbDictionaryWithDefault
340
F
  0
DICTIONARY
  5
17
102
{ACAD_REACTORS
330
C
102
}
100
AcDbDictionary
280
0
281
1
  3
Standard
350
18
  0
DICTIONARY
  5
19
102
{ACAD_REACTORS
330
C
102
}
100
AcDbDictionary
281
1
  0
DICTIONARY
  5
1A
102
{ACAD_REACTORS
330
C
102
}
100
AcDbDictionary
281
1
  3
Model
350
342
  3
Layout1
350
343
  0
ACDBPLACEHOLDER
  5
F
102
{ACAD_REACTORS
330
E
102
}
  0
MLINESTYLE
  5
18
102
{ACAD_REACTORS
330
17
102
}
100
AcDbMlineStyle
  2
STANDARD
 70
0
  3

 62
256
 51
90.0
 52
90.0
 71
2
 49
0.5
 62
256
  6
BYLAYER
 49
-0.5
 62
256
  6
BYLAYER
  0
LAYOUT
  5
342
102
{ACAD_REACTORS
330
1A
102
}
100
AcDbPlotSettings
  1

  2
none_device
  4

  6

 40
0.0
 41
0.0
 42
0.0
 43
0.0
 44
210.0
 45
297.0
 46
0.0
 47
0.0
 48
0.0
 49
0.0
140
0.0
141
0.0
142
1.0
143
1.0
 70
1024
 72
1
 73
0
 74
0
  7

 75
0
147
1.0
148
0.0
149
0.0
100
AcDbLayout
  1
Model
 70
0
 71
0
 10
0.0
 20
0.0
 11
210.0
 21
297.0
 12
0.0
 22
0.0
 32
0.0
 14
0.0
 24
0.0
 34
0.0
 15
0.0
 25
0.0
 35
0.0
146
0.0
 13
0.0
 23
0.0
 33
0.0
 16
1.0
 26
0.0
 36
0.0
 17
0.0
 27
1.0
 37
0.0
 76
0
330
210
345
0
346
0
  0
LAYOUT
  5
343
102
{ACAD_REACTORS
330
1A
102
}
100
AcDbPlotSettings
  1

  2
none_device
  4

  6

 40
0.0
 41
0.0
 42
0.0
 43
0.0
 44
210.0
 45
297.0
 46
0.0
 47
0.0
 48
0.0
 49
0.0
140
0.0
141
0.0
142
1.0
143
1.0
 70
0
 72
1
 73
0
 74
0
  7

 75
0
147
1.0
148
0.0
149
0.0
100
AcDbLayout
  1
Layout1
 70
0
 71
1
 10
0.0
 20
0.0
 11
210.0
 21
297.0
 12
0.0
 22
0.0
 32
0.0
 14
0.0
 24
0.0
 34
0.0
 15
0.0
 25
0.0
 35
0.0
146
0.0
 13
0.0
 23
0.0
 33
0.0
 16
1.0
 26
0.0
 36
0.0
 17
0.0
 27
1.0
 37
0.0
 76
0
330
211
345
0
346
0
  0
ENDSEC
  0
EOF
