999
DXF file: C:\Users\sesa63760\Dev\_Creo\CAD\MCADID0001385_3D-CAD\drw0001_1.dxf
999
Pro/ENGINEER 2019471 by Parametric Technology Corporation
  0
SECTION
  2
HEADER
  9
$ACADVER
  1
AC1024
  9
$DWGCODEPAGE
  3
ANSI_1252
  9
$EXTMAX
 10
243.8513748692
 20
344.8755158865
 30
0.0
  9
$EXTMIN
 10
0.0
 20
0.0
 30
0.0
  9
$LIMMIN
 10
0.0
 20
0.0
  9
$LIMMAX
 10
243.8513748692
 20
344.8755158865
  9
$VIEWCTR
 10
121.9256874346
 20
172.4377579432
  9
$VIEWSIZE
 40
344.8755158865
  9
$CLAYER
  8
0
  9
$LTSCALE
 40
22.4807743689
  9
$CELTYPE
  6
BYLAYER
  9
$DIMSCALE
 40
1.0
  9
$DIMASZ
 40
2.902992558
  9
$DIMEXO
 40
1.0
  9
$DIMDLI
 40
15.5321713821
  9
$DIMEXE
 40
1.0
  9
$DIMCEN
 40
3.6786721695
  9
$DIMLFAC
 40
1.0
  9
$DIMBLK
  1
_FILLED
  9
$DIMALT
 70
0
  9
$DIMALTF
 40
0.0393700787
  9
$DIMTXT
 40
4.0641895812
  9
$DIMTOL
 70
1
  9
$DIMLIM
 70
0
  9
$DIMTFAC
 40
1.0
  9
$DIMTP
 40
0.01
  9
$DIMTM
 40
0.01
  9
$DIMGAP
 40
0.625
  9
$DIMDSEP
 70
46
  9
$AUNITS
 70
0
  9
$PDMODE
 70
3
  9
$PDSIZE
 40
0.3125
  9
$HANDSEED
  5
3E1
  9
$TILEMODE
 70
1
  9
$MEASUREMENT
 70
1
  9
$INSUNITS
 70
4
  0
ENDSEC
  0
SECTION
  2
CLASSES
  0
CLASS
  1
ACDBDICTIONARYWDFLT
  2
AcDbDictionaryWithDefault
  3
AutoCAD 2000
 90
0
 91
1
280
0
281
0
  0
CLASS
  1
ACDBPLACEHOLDER
  2
AcDbPlaceHolder
  3
AutoCAD 2000
 90
0
 91
1
280
0
281
0
  0
CLASS
  1
LAYOUT
  2
AcDbLayout
  3
AutoCAD 2000
 90
0
 91
0
280
0
281
0
  0
ENDSEC
  0
SECTION
  2
TABLES
  0
TABLE
  2
VPORT
  5
8
100
AcDbSymbolTable
 70
2
  0
VPORT
  5
1F4
100
AcDbSymbolTableRecord
100
AcDbViewportTableRecord
  2
*ACTIVE
 70
0
 10
0.0
 20
0.0
 11
1.0
 21
1.0
 12
121.9256874346
 22
172.4377579432
 13
0.0
 23
0.0
 14
1.0
 24
1.0
 15
0.0
 25
0.0
 16
0.0
 26
0.0
 36
1.0
 17
0.0
 27
0.0
 37
0.0
 40
344.8755158865
 41
0.7070707071
 42
50.0
 43
0.0
 44
0.0
 50
0.0
 51
0.0
 71
0
 72
100
 73
1
 74
1
 75
0
 76
0
 77
0
 78
0
  0
ENDTAB
  0
TABLE
  2
LTYPE
  5
5
100
AcDbSymbolTable
 70
6
  0
LTYPE
  5
14
100
AcDbSymbolTableRecord
100
AcDbLinetypeTableRecord
  2
BYBLOCK
 70
0
  3

 72
65
 73
0
 40
0.0
  0
LTYPE
  5
15
100
AcDbSymbolTableRecord
100
AcDbLinetypeTableRecord
  2
BYLAYER
 70
0
  3

 72
65
 73
0
 40
0.0
  0
LTYPE
  5
16
100
AcDbSymbolTableRecord
100
AcDbLinetypeTableRecord
  2
CONTINUOUS
 70
64
  3
Solid line
 72
65
 73
0
 40
0.0
  0
LTYPE
  5
1F5
100
AcDbSymbolTableRecord
100
AcDbLinetypeTableRecord
  2
CENTER
 70
64
  3
____ _ ____ _ ____ _ ____ _ ____ _ ____ _ ____
 72
65
 73
4
 40
0.6
 49
0.375
 74
0
 49
-0.075
 74
0
 49
0.075
 74
0
 49
-0.075
 74
0
  0
LTYPE
  5
1F6
100
AcDbSymbolTableRecord
100
AcDbLinetypeTableRecord
  2
HIDDEN
 70
64
  3
- - - - - - - - - - - - - - - - - - - -
 72
65
 73
2
 40
0.2
 49
0.1
 74
0
 49
-0.1
 74
0
  0
LTYPE
  5
1F7
100
AcDbSymbolTableRecord
100
AcDbLinetypeTableRecord
  2
PHANTOM
 70
64
  3
_____ _ _ _____ _ _ _____ _ _ _____
 72
65
 73
6
 40
0.8
 49
0.45
 74
0
 49
-0.05
 74
0
 49
0.1
 74
0
 49
-0.05
 74
0
 49
0.1
 74
0
 49
-0.05
 74
0
  0
LTYPE
  5
1F8
100
AcDbSymbolTableRecord
100
AcDbLinetypeTableRecord
  2
DOT
 70
64
  3
. . . . . . . . . . . . . . . . . . . .
 72
65
 73
2
 40
0.2
 49
0.1
 74
0
 49
-0.1
 74
0
  0
LTYPE
  5
1F9
100
AcDbSymbolTableRecord
100
AcDbLinetypeTableRecord
  2
DASHED
 70
64
  3
- - - - - - - - - - - - - - - - - - - -
 72
65
 73
2
 40
0.2
 49
0.1
 74
0
 49
-0.1
 74
0
  0
ENDTAB
  0
TABLE
  2
LAYER
  5
2
100
AcDbSymbolTable
 70
36
  0
LAYER
  5
10
100
AcDbSymbolTableRecord
100
AcDbLayerTableRecord
  2
0
 70
0
 62
7
  6
CONTINUOUS
370
-3
390
F
  0
LAYER
  5
1FA
100
AcDbSymbolTableRecord
100
AcDbLayerTableRecord
  2
DEFAULT_1
 70
0
 62
7
  6
CENTER
370
-3
390
F
  0
LAYER
  5
1FB
100
AcDbSymbolTableRecord
100
AcDbLayerTableRecord
  2
DEFAULT_2
 70
0
 62
8
  6
HIDDEN
370
-3
390
F
  0
LAYER
  5
1FC
100
AcDbSymbolTableRecord
100
AcDbLayerTableRecord
  2
DEFAULT_3
 70
0
 62
7
  6
PHANTOM
370
-3
390
F
  0
LAYER
  5
1FD
100
AcDbSymbolTableRecord
100
AcDbLayerTableRecord
  2
00_COMPONENTS
 70
0
 62
7
  6
CONTINUOUS
370
-3
390
F
  0
LAYER
  5
1FE
100
AcDbSymbolTableRecord
100
AcDbLayerTableRecord
  2
01_1_DEFAULT_DATUMS
 70
0
 62
7
  6
CONTINUOUS
370
-3
390
F
  0
LAYER
  5
1FF
100
AcDbSymbolTableRecord
100
AcDbLayerTableRecord
  2
01_PLANES
 70
0
 62
7
  6
CONTINUOUS
370
-3
390
F
  0
LAYER
  5
200
100
AcDbSymbolTableRecord
100
AcDbLayerTableRecord
  2
02_COORD_SYS
 70
0
 62
7
  6
CONTINUOUS
370
-3
390
F
  0
LAYER
  5
201
100
AcDbSymbolTableRecord
100
AcDbLayerTableRecord
  2
03_AXES
 70
0
 62
7
  6
CONTINUOUS
370
-3
390
F
  0
LAYER
  5
202
100
AcDbSymbolTableRecord
100
AcDbLayerTableRecord
  2
04_POINTS
 70
0
 62
7
  6
CONTINUOUS
370
-3
390
F
  0
LAYER
  5
203
100
AcDbSymbolTableRecord
100
AcDbLayerTableRecord
  2
05_CURVES
 70
0
 62
7
  6
CONTINUOUS
370
-3
390
F
  0
LAYER
  5
204
100
AcDbSymbolTableRecord
100
AcDbLayerTableRecord
  2
06_SURFS
 70
0
 62
7
  6
CONTINUOUS
370
-3
390
F
  0
LAYER
  5
205
100
AcDbSymbolTableRecord
100
AcDbLayerTableRecord
  2
07_COSMETICS
 70
0
 62
7
  6
CONTINUOUS
370
-3
390
F
  0
LAYER
  5
206
100
AcDbSymbolTableRecord
100
AcDbLayerTableRecord
  2
10_NOTES
 70
0
 62
7
  6
CONTINUOUS
370
-3
390
F
  0
LAYER
  5
207
100
AcDbSymbolTableRecord
100
AcDbLayerTableRecord
  2
11_NOTES_PUB
 70
0
 62
7
  6
CONTINUOUS
370
-3
390
F
  0
LAYER
  5
208
100
AcDbSymbolTableRecord
100
AcDbLayerTableRecord
  2
13_REF_GTOL
 70
0
 62
7
  6
CONTINUOUS
370
-3
390
F
  0
LAYER
  5
209
100
AcDbSymbolTableRecord
100
AcDbLayerTableRecord
  2
16_MISC
 70
0
 62
7
  6
CONTINUOUS
370
-3
390
F
  0
LAYER
  5
20A
100
AcDbSymbolTableRecord
100
AcDbLayerTableRecord
  2
17_NO_PRINT
 70
0
 62
7
  6
CONTINUOUS
370
-3
390
F
  0
LAYER
  5
20B
100
AcDbSymbolTableRecord
100
AcDbLayerTableRecord
  2
18_DATUM_CAMS_JOINTS
 70
0
 62
7
  6
CONTINUOUS
370
-3
390
F
  0
LAYER
  5
20C
100
AcDbSymbolTableRecord
100
AcDbLayerTableRecord
  2
19_DATUM_FUNCTIONAL
 70
0
 62
7
  6
CONTINUOUS
370
-3
390
F
  0
LAYER
  5
20D
100
AcDbSymbolTableRecord
100
AcDbLayerTableRecord
  2
20_DATUM_KINEMATIC_SCHEME
 70
0
 62
7
  6
CONTINUOUS
370
-3
390
F
  0
LAYER
  5
20E
100
AcDbSymbolTableRecord
100
AcDbLayerTableRecord
  2
_1
 70
0
 62
7
  6
CONTINUOUS
370
-3
390
F
  0
ENDTAB
  0
TABLE
  2
STYLE
  5
3
100
AcDbSymbolTable
 70
1
  0
STYLE
  5
11
100
AcDbSymbolTableRecord
100
AcDbTextStyleTableRecord
  2
STANDARD
 70
0
 40
0.0
 41
0.8
 50
0.0
 71
0
 42
0.2
  3
txt
  4

  0
STYLE
  5
20F
100
AcDbSymbolTableRecord
100
AcDbTextStyleTableRecord
  2
TEXTSTYLE_1
 70
0
 40
0.0
 41
0.8
 50
0.0
 71
0
 42
0.2
  3
gdt
  4

  0
ENDTAB
  0
TABLE
  2
VIEW
  5
6
100
AcDbSymbolTable
 70
0
  0
ENDTAB
  0
TABLE
  2
UCS
  5
7
100
AcDbSymbolTable
 70
0
  0
ENDTAB
  0
TABLE
  2
APPID
  5
9
100
AcDbSymbolTable
 70
1
  0
APPID
  5
210
100
AcDbSymbolTableRecord
100
AcDbRegAppTableRecord
  2
ACAD
 70
0
  0
ENDTAB
  0
TABLE
  2
BLOCK_RECORD
  5
1
100
AcDbSymbolTable
 70
0
  0
BLOCK_RECORD
  5
211
100
AcDbSymbolTableRecord
100
AcDbBlockTableRecord
  2
*Model_Space
  0
BLOCK_RECORD
  5
212
100
AcDbSymbolTableRecord
100
AcDbBlockTableRecord
  2
*Paper_Space
  0
BLOCK_RECORD
  5
213
100
AcDbSymbolTableRecord
100
AcDbBlockTableRecord
  2
_FILLED
  0
ENDTAB
  0
TABLE
  2
DIMSTYLE
  5
A
100
AcDbSymbolTable
 70
1
100
AcDbDimStyleTable
 71
0
  0
DIMSTYLE
105
214
100
AcDbSymbolTableRecord
100
AcDbDimStyleTableRecord
  2
STANDARD
 70
0
  3

  4

 40
1.0
 41
2.902992558
 42
1.0
 43
0.38
 44
1.0
 45
0.0
 46
0.0
 47
0.01
 48
0.01
140
4.0641895812
141
0.09
142
0.0
143
25.4
144
1.0
145
0.0
146
1.0
147
0.625
 71
1
 72
0
 73
0
 74
0
 75
0
 76
0
 77
1
 78
8
 79
2
170
0
171
1
172
0
173
0
174
0
175
0
176
0
177
0
178
0
270
2
179
2
271
2
272
2
273
2
274
2
275
0
280
0
281
0
282
0
283
1
284
8
285
0
286
0
287
3
288
0
340
11
278
46
341
213
342
213
343
213
344
213
  0
ENDTAB
  0
ENDSEC
  0
SECTION
  2
BLOCKS
  0
BLOCK
  5
20
100
AcDbEntity
  8
0
100
AcDbBlockBegin
  2
*Model_Space
 70
0
 10
0.0
 20
0.0
 30
0.0
  3
*Model_Space
  1

  0
ENDBLK
  5
21
100
AcDbEntity
  8
0
100
AcDbBlockEnd
  0
BLOCK
  5
1C
100
AcDbEntity
  8
0
100
AcDbBlockBegin
  2
*Paper_Space
 70
0
 10
0.0
 20
0.0
 30
0.0
  3
*Paper_Space
  1

  0
ENDBLK
  5
1D
100
AcDbEntity
  8
0
100
AcDbBlockEnd
  0
BLOCK
  5
215
100
AcDbEntity
  8
0
100
AcDbBlockBegin
  2
_FILLED
 70
64
 10
0.0
 20
0.0
  3
_FILLED
  1

  0
SOLID
  5
216
100
AcDbEntity
  8
0
  6
BYBLOCK
 62
0
100
AcDbTrace
 10
0.0
 20
0.0
 11
-1.0
 21
0.25
 12
-1.0
 22
-0.25
 13
-1.0
 23
-0.25
  0
ENDBLK
  5
217
100
AcDbEntity
  8
0
  6
BYBLOCK
 62
0
100
AcDbBlockEnd
  0
ENDSEC
  0
SECTION
  2
ENTITIES
  0
LINE
  5
218
100
AcDbEntity
  8
_1
100
AcDbLine
 62
7
  6
CONTINUOUS
 10
63.5060724965
 20
82.6351804502
 11
31.9640925097
 21
100.845539113
  0
LINE
  5
219
100
AcDbEntity
  8
_1
100
AcDbLine
 62
7
  6
CONTINUOUS
 10
28.2895650615
 20
125.420797002
 11
28.4286785068
 21
106.9335510618
  0
LINE
  5
21A
100
AcDbEntity
  8
_1
100
AcDbLine
 62
7
  6
CONTINUOUS
 10
36.5983458092
 20
113.6432129443
 11
36.6087795267
 21
113.6177068711
  0
LINE
  5
21B
100
AcDbEntity
  8
_1
100
AcDbLine
 62
7
  6
CONTINUOUS
 10
36.4381190304
 20
113.6380696246
 11
36.4475094905
 21
113.6121437748
  0
LINE
  5
21C
100
AcDbEntity
  8
_1
100
AcDbLine
 62
7
  6
CONTINUOUS
 10
35.9820768635
 20
112.9286997992
 11
35.9820768635
 21
111.8453748843
  0
LINE
  5
21D
100
AcDbEntity
  8
_1
100
AcDbLine
 62
7
  6
CONTINUOUS
 10
28.4286785068
 20
143.7474122059
 11
28.2895650615
 21
125.420797002
  0
LINE
  5
21E
100
AcDbEntity
  8
_1
100
AcDbLine
 62
7
  6
CONTINUOUS
 10
38.5427414512
 20
111.1264012658
 11
38.5427414512
 21
112.3163386674
  0
LINE
  5
21F
100
AcDbEntity
  8
_1
100
AcDbLine
 62
7
  6
CONTINUOUS
 10
44.9066759861
 20
115.9905360523
 11
44.9066759861
 21
114.8005986506
  0
LINE
  5
220
100
AcDbEntity
  8
_1
100
AcDbLine
 62
7
  6
CONTINUOUS
 10
45.3460113984
 20
116.602897184
 11
45.3460113984
 21
115.5195722691
  0
LINE
  5
221
100
AcDbEntity
  8
_1
100
AcDbLine
 62
7
  6
CONTINUOUS
 10
49.4735313096
 20
138.3048825527
 11
48.4275103393
 21
140.558674746
  0
LINE
  5
222
100
AcDbEntity
  8
_1
100
AcDbLine
 62
7
  6
CONTINUOUS
 10
49.4735313096
 20
142.3057443966
 11
48.4275103393
 21
144.5595365899
  0
LINE
  5
223
100
AcDbEntity
  8
_1
100
AcDbLine
 62
7
  6
CONTINUOUS
 10
48.4275103393
 20
147.1723443247
 11
49.4735313096
 21
144.9185521314
  0
LINE
  5
224
100
AcDbEntity
  8
_1
100
AcDbLine
 62
7
  6
CONTINUOUS
 10
47.831257445
 20
142.5675893924
 11
47.831257445
 21
143.2207913261
  0
LINE
  5
225
100
AcDbEntity
  8
_1
100
AcDbLine
 62
7
  6
CONTINUOUS
 10
48.331257445
 20
139.9547816576
 11
48.331257445
 21
139.546530449
  0
LINE
  5
226
100
AcDbEntity
  8
_1
100
AcDbLine
 62
7
  6
CONTINUOUS
 10
48.4275103393
 20
140.558674746
 11
48.4275103393
 21
141.3038710049
  0
LINE
  5
227
100
AcDbEntity
  8
_1
100
AcDbLine
 62
7
  6
CONTINUOUS
 10
48.4275103393
 20
144.5595365899
 11
48.4275103393
 21
147.1723443247
  0
LINE
  5
228
100
AcDbEntity
  8
_1
100
AcDbLine
 62
7
  6
CONTINUOUS
 10
48.531257445
 20
143.2207913261
 11
48.531257445
 21
143.9556435015
  0
LINE
  5
229
100
AcDbEntity
  8
_1
100
AcDbLine
 62
7
  6
CONTINUOUS
 10
49.4735313096
 20
138.3048825527
 11
49.4735313096
 21
140.5946380905
  0
LINE
  5
22A
100
AcDbEntity
  8
_1
100
AcDbLine
 62
7
  6
CONTINUOUS
 10
49.4735313096
 20
142.3057443966
 11
49.4735313096
 21
144.9185521314
  0
LINE
  5
22B
100
AcDbEntity
  8
_1
100
AcDbLine
 62
7
  6
CONTINUOUS
 10
50.331257445
 20
146.5684512364
 11
50.331257445
 21
149.7528106632
  0
LINE
  5
22C
100
AcDbEntity
  8
_1
100
AcDbLine
 62
7
  6
CONTINUOUS
 10
53.3772784153
 20
137.7009894643
 11
53.3772784153
 21
140.0657304674
  0
LINE
  5
22D
100
AcDbEntity
  8
_1
100
AcDbLine
 62
7
  6
CONTINUOUS
 10
53.3772784153
 20
141.7018513083
 11
53.3772784153
 21
144.3146590431
  0
LINE
  5
22E
100
AcDbEntity
  8
_1
100
AcDbLine
 62
7
  6
CONTINUOUS
 10
54.331257445
 20
146.5684512364
 11
54.331257445
 21
149.7528106632
  0
LINE
  5
22F
100
AcDbEntity
  8
_1
100
AcDbLine
 62
7
  6
CONTINUOUS
 10
48.5674976635
 20
144.2579151621
 11
48.5312636242
 21
143.9556435011
  0
LINE
  5
230
100
AcDbEntity
  8
_1
100
AcDbLine
 62
7
  6
CONTINUOUS
 10
31.9640925097
 20
145.7531720551
 11
63.5060724965
 21
127.5428133923
  0
LINE
  5
231
100
AcDbEntity
  8
_1
100
AcDbLine
 62
7
  6
CONTINUOUS
 10
56.2350045506
 20
145.964558148
 11
55.1889835803
 21
148.2183503413
  0
LINE
  5
232
100
AcDbEntity
  8
_1
100
AcDbLine
 62
7
  6
CONTINUOUS
 10
56.131257445
 20
143.2207913261
 11
56.131257445
 21
143.2918523513
  0
LINE
  5
233
100
AcDbEntity
  8
_1
100
AcDbLine
 62
7
  6
CONTINUOUS
 10
56.2350045506
 20
139.3508885693
 11
56.2350045506
 21
141.3028316882
  0
LINE
  5
234
100
AcDbEntity
  8
_1
100
AcDbLine
 62
7
  6
CONTINUOUS
 10
56.2350045506
 20
143.3517504132
 11
56.2350045506
 21
145.964558148
  0
LINE
  5
235
100
AcDbEntity
  8
_1
100
AcDbLine
 62
7
  6
CONTINUOUS
 10
56.331257445
 20
139.9547816576
 11
56.331257445
 21
139.546530449
  0
LINE
  5
236
100
AcDbEntity
  8
_1
100
AcDbLine
 62
7
  6
CONTINUOUS
 10
56.831257445
 20
142.5675893924
 11
56.831257445
 21
143.2207913261
  0
LINE
  5
237
100
AcDbEntity
  8
_1
100
AcDbLine
 62
7
  6
CONTINUOUS
 10
58.6952331954
 20
137.26038275
 11
58.6952331954
 21
137.5053334751
  0
LINE
  5
238
100
AcDbEntity
  8
_1
100
AcDbLine
 62
7
  6
CONTINUOUS
 10
38.3280270446
 20
149.42736944
 11
42.4255626456
 21
147.0617096761
  0
LINE
  5
239
100
AcDbEntity
  8
_1
100
AcDbLine
 62
7
  6
CONTINUOUS
 10
65.7724714304
 20
133.5826705411
 11
69.8700070314
 21
131.2170107772
  0
LINE
  5
23A
100
AcDbEntity
  8
_1
100
AcDbLine
 62
7
  6
CONTINUOUS
 10
67.1805999446
 20
102.9675555034
 11
67.0414864994
 21
121.4548014435
  0
LINE
  5
23B
100
AcDbEntity
  8
_1
100
AcDbLine
 62
7
  6
CONTINUOUS
 10
67.0414864994
 20
84.6409402994
 11
67.1805999446
 21
102.9675555034
  0
LINE
  5
23C
100
AcDbEntity
  8
_1
100
AcDbLine
 62
7
  6
CONTINUOUS
 10
174.5419766157
 20
257.2681252016
 11
150.2462271778
 21
245.6955137383
  0
LINE
  5
23D
100
AcDbEntity
  8
_1
100
AcDbLine
 62
7
  6
CONTINUOUS
 10
73.4054210343
 20
125.1289988284
 11
73.4951187746
 21
113.2087693909
  0
LINE
  5
23E
100
AcDbEntity
  8
_1
100
AcDbLine
 62
7
  6
CONTINUOUS
 10
73.1908618583
 20
145.6293879044
 11
73.1908618583
 21
145.8743386295
  0
LINE
  5
23F
100
AcDbEntity
  8
_1
100
AcDbLine
 62
7
  6
CONTINUOUS
 10
73.4951187746
 20
100.1317954358
 11
73.4054210343
 21
88.3151376842
  0
LINE
  5
240
100
AcDbEntity
  8
_1
100
AcDbLine
 62
7
  6
CONTINUOUS
 10
186.7291768758
 20
263.0388420625
 11
177.3215169734
 21
257.607359507
  0
LINE
  5
241
100
AcDbEntity
  8
_1
100
AcDbLine
 62
7
  6
CONTINUOUS
 10
53.3772784153
 20
137.7009894643
 11
49.4735313096
 21
138.3048825527
  0
LINE
  5
242
100
AcDbEntity
  8
_1
100
AcDbLine
 62
7
  6
CONTINUOUS
 10
63.2913257062
 20
151.5897091928
 11
73.1908618583
 21
145.8743386295
  0
LINE
  5
243
100
AcDbEntity
  8
_1
100
AcDbLine
 62
7
  6
CONTINUOUS
 10
193.9875058331
 20
244.551404046
 11
171.1059640696
 21
233.65241148
  0
LINE
  5
244
100
AcDbEntity
  8
_1
100
AcDbLine
 62
7
  6
CONTINUOUS
 10
53.3772784153
 20
141.7018513083
 11
49.4735313096
 21
142.3057443966
  0
LINE
  5
245
100
AcDbEntity
  8
_1
100
AcDbLine
 62
7
  6
CONTINUOUS
 10
49.4735313096
 20
144.9185521314
 11
53.3772784153
 21
144.3146590431
  0
LINE
  5
246
100
AcDbEntity
  8
_1
100
AcDbLine
 62
7
  6
CONTINUOUS
 10
55.1889835803
 20
148.2183503413
 11
54.331257445
 21
148.3510369295
  0
LINE
  5
247
100
AcDbEntity
  8
_1
100
AcDbLine
 62
7
  6
CONTINUOUS
 10
205.467602256
 20
249.7710073425
 11
197.0099086341
 21
244.8879848009
  0
LINE
  5
248
100
AcDbEntity
  8
_1
100
AcDbLine
 62
7
  6
CONTINUOUS
 10
150.246289203
 20
245.6933198544
 11
150.2303528933
 21
245.668311521
  0
LINE
  5
249
100
AcDbEntity
  8
_1
100
AcDbLine
 62
7
  6
CONTINUOUS
 10
146.6424103039
 20
214.1244173001
 11
146.3102734814
 21
213.8547154129
  0
LWPOLYLINE
  5
24A
100
AcDbEntity
  8
_1
100
AcDbPolyline
 62
7
  6
CONTINUOUS
 90
3
 70
0
 10
132.3367701561
 20
199.8553322363
 10
128.7917201261
 20
197.3713224301
 10
128.2127358399
 20
196.9668236063
  0
LINE
  5
24B
100
AcDbEntity
  8
_1
100
AcDbLine
 62
7
  6
CONTINUOUS
 10
132.5902339392
 20
200.0301566612
 11
132.3378297474
 21
199.8534125764
  0
LINE
  5
24C
100
AcDbEntity
  8
_1
100
AcDbLine
 62
7
  6
CONTINUOUS
 10
137.8159376299
 20
202.787209857
 11
152.2035465068
 21
211.8703918892
  0
LWPOLYLINE
  5
24D
100
AcDbEntity
  8
_1
100
AcDbPolyline
 62
7
  6
CONTINUOUS
 90
3
 70
0
 10
137.8159373843
 20
202.7872099955
 10
135.2719221978
 20
201.209481924
 10
130.9826044529
 20
198.6149524799
  0
LINE
  5
24E
100
AcDbEntity
  8
_1
100
AcDbLine
 62
7
  6
CONTINUOUS
 10
130.9826044529
 20
198.6149524799
 11
126.0679332115
 21
195.6906218675
  0
LINE
  5
24F
100
AcDbEntity
  8
_1
100
AcDbLine
 62
7
  6
CONTINUOUS
 10
146.9469646823
 20
214.3002508029
 11
146.7654081325
 21
214.1954297057
  0
LINE
  5
250
100
AcDbEntity
  8
_1
100
AcDbLine
 62
7
  6
CONTINUOUS
 10
29.4641037019
 20
146.0007934502
 11
35.8280382368
 21
149.6749908351
  0
LINE
  5
251
100
AcDbEntity
  8
_1
100
AcDbLine
 62
7
  6
CONTINUOUS
 10
148.6423636905
 20
213.9263952338
 11
148.8191396498
 21
214.0284562723
  0
LINE
  5
252
100
AcDbEntity
  8
_1
100
AcDbLine
 62
7
  6
CONTINUOUS
 10
31.9640925097
 20
145.7531720551
 11
38.3280270446
 21
149.42736944
  0
LINE
  5
253
100
AcDbEntity
  8
_1
100
AcDbLine
 62
7
  6
CONTINUOUS
 10
126.0709215125
 20
195.6922882658
 11
42.1326717862
 21
147.2308064671
  0
LINE
  5
254
100
AcDbEntity
  8
_1
100
AcDbLine
 62
7
  6
CONTINUOUS
 10
42.4255626456
 20
147.0617096761
 11
153.4408650882
 21
211.1560418339
  0
LWPOLYLINE
  5
255
100
AcDbEntity
  8
_1
100
AcDbPolyline
 62
7
  6
CONTINUOUS
 90
4
 70
0
 10
146.3103341404
 20
213.8547504342
 10
143.04259933
 20
210.259589891
 10
139.8800014133
 20
206.8500857723
 10
137.0341565285
 20
203.9640231223
  0
LINE
  5
256
100
AcDbEntity
  8
_1
100
AcDbLine
 62
7
  6
CONTINUOUS
 10
135.7669655278
 20
201.5164941472
 11
148.6423665556
 21
213.9263719705
  0
LINE
  5
257
100
AcDbEntity
  8
_1
100
AcDbLine
 62
7
  6
CONTINUOUS
 10
132.1684019637
 20
199.3322195931
 11
137.0341463155
 21
203.964025786
  0
LWPOLYLINE
  5
258
100
AcDbEntity
  8
_1
100
AcDbPolyline
 62
7
  6
CONTINUOUS
 90
4
 70
0
 10
134.8348573554
 20
201.8704755522
 10
134.0562884399
 20
201.1671809953
 10
133.1116548346
 20
200.4084284316
 10
132.5902339392
 20
200.0301566612
  0
LINE
  5
259
100
AcDbEntity
  8
_1
100
AcDbLine
 62
7
  6
CONTINUOUS
 10
48.4275103393
 20
147.1723443247
 11
50.331257445
 21
148.2714666678
  0
LINE
  5
25A
100
AcDbEntity
  8
_1
100
AcDbLine
 62
7
  6
CONTINUOUS
 10
55.6672090101
 20
147.1879496409
 11
63.2913257062
 21
151.5897091928
  0
LINE
  5
25B
100
AcDbEntity
  8
_1
100
AcDbLine
 62
7
  6
CONTINUOUS
 10
171.0900897289
 20
213.1330301327
 11
166.3517408918
 21
210.3973594859
  0
LINE
  5
25C
100
AcDbEntity
  8
_1
100
AcDbLine
 62
7
  6
CONTINUOUS
 10
56.2350045506
 20
145.964558148
 11
53.3772784153
 21
144.3146590431
  0
LINE
  5
25D
100
AcDbEntity
  8
_1
100
AcDbLine
 62
7
  6
CONTINUOUS
 10
56.2350045506
 20
143.3517504132
 11
53.3772784153
 21
141.7018513083
  0
LINE
  5
25E
100
AcDbEntity
  8
_1
100
AcDbLine
 62
7
  6
CONTINUOUS
 10
167.9479541053
 20
207.5630169945
 11
166.3517408918
 21
206.6414483671
  0
LINE
  5
25F
100
AcDbEntity
  8
_1
100
AcDbLine
 62
7
  6
CONTINUOUS
 10
37.7351272719
 20
131.5147101756
 11
36.3209195974
 21
130.6982218678
  0
LINE
  5
260
100
AcDbEntity
  8
_1
100
AcDbLine
 62
7
  6
CONTINUOUS
 10
53.3772784153
 20
137.7009894643
 11
56.2350045506
 21
139.3508885693
  0
LINE
  5
261
100
AcDbEntity
  8
_1
100
AcDbLine
 62
7
  6
CONTINUOUS
 10
216.9675507719
 20
229.8523933312
 11
210.0026683539
 21
225.8312405953
  0
LINE
  5
262
100
AcDbEntity
  8
_1
100
AcDbLine
 62
7
  6
CONTINUOUS
 10
73.1908618583
 20
145.8743386295
 11
58.6952331954
 21
137.5053334751
  0
LINE
  5
263
100
AcDbEntity
  8
_1
100
AcDbLine
 62
7
  6
CONTINUOUS
 10
73.1908618583
 20
145.6293879044
 11
58.6952331954
 21
137.26038275
  0
LINE
  5
264
100
AcDbEntity
  8
_1
100
AcDbLine
 62
7
  6
CONTINUOUS
 10
171.1060265685
 20
233.650200806
 11
171.0900897849
 21
233.6252137632
  0
LINE
  5
265
100
AcDbEntity
  8
_1
100
AcDbLine
 62
7
  6
CONTINUOUS
 10
150.6249112916
 20
180.9461222062
 11
178.0250924543
 21
196.9626526436
  0
LINE
  5
266
100
AcDbEntity
  8
_1
100
AcDbLine
 62
7
  6
CONTINUOUS
 10
176.787773873
 20
197.6770026989
 11
65.7724714304
 21
133.5826705411
  0
LINE
  5
267
100
AcDbEntity
  8
_1
100
AcDbLine
 62
7
  6
CONTINUOUS
 10
67.1805054506
 20
132.7697601109
 11
150.6249108594
 21
180.946122462
  0
LINE
  5
268
100
AcDbEntity
  8
_1
100
AcDbLine
 62
7
  6
CONTINUOUS
 10
36.4214122758
 20
113.541060931
 11
42.7853468107
 21
117.2152583158
  0
LINE
  5
269
100
AcDbEntity
  8
_1
100
AcDbLine
 62
7
  6
CONTINUOUS
 10
45.1315406574
 20
117.8871743084
 11
44.2845239421
 21
117.3981518988
  0
LINE
  5
26A
100
AcDbEntity
  8
_1
100
AcDbLine
 62
7
  6
CONTINUOUS
 10
35.9820768635
 20
112.6047604558
 11
31.3430158318
 21
109.9264133079
  0
LINE
  5
26B
100
AcDbEntity
  8
_1
100
AcDbLine
 62
7
  6
CONTINUOUS
 10
69.8700070314
 20
131.2170107772
 11
63.5060724965
 21
127.5428133923
  0
LINE
  5
26C
100
AcDbEntity
  8
_1
100
AcDbLine
 62
7
  6
CONTINUOUS
 10
150.6499173728
 20
177.6229241789
 11
70.0506808449
 21
131.0892110418
  0
LINE
  5
26D
100
AcDbEntity
  8
_1
100
AcDbLine
 62
7
  6
CONTINUOUS
 10
201.3535545279
 20
206.519140305
 11
187.2114777836
 21
198.3542572275
  0
LINE
  5
26E
100
AcDbEntity
  8
_1
100
AcDbLine
 62
7
  6
CONTINUOUS
 10
181.7630512299
 20
195.0087103375
 11
181.5862752706
 21
194.906649299
  0
LINE
  5
26F
100
AcDbEntity
  8
_1
100
AcDbLine
 62
7
  6
CONTINUOUS
 10
44.9066759861
 20
115.9905360523
 11
38.5427414512
 21
112.3163386674
  0
LINE
  5
270
100
AcDbEntity
  8
_1
100
AcDbLine
 62
7
  6
CONTINUOUS
 10
150.6499173728
 20
177.6229241802
 11
181.5862752352
 21
194.9066493195
  0
LINE
  5
271
100
AcDbEntity
  8
_1
100
AcDbLine
 62
7
  6
CONTINUOUS
 10
206.5906132464
 20
212.1503707111
 11
194.9896258809
 21
204.9678667134
  0
LINE
  5
272
100
AcDbEntity
  8
_1
100
AcDbLine
 62
7
  6
CONTINUOUS
 10
154.1853307366
 20
171.5349165078
 11
184.414570063
 21
190.0362347762
  0
LINE
  5
273
100
AcDbEntity
  8
_1
100
AcDbLine
 62
7
  6
CONTINUOUS
 10
44.9066759861
 20
114.8005986506
 11
38.5427414512
 21
111.1264012658
  0
LINE
  5
274
100
AcDbEntity
  8
_1
100
AcDbLine
 62
7
  6
CONTINUOUS
 10
204.6858600022
 20
205.2483633054
 11
202.4226664943
 21
203.941715724
  0
LINE
  5
275
100
AcDbEntity
  8
_1
100
AcDbLine
 62
7
  6
CONTINUOUS
 10
207.7585047823
 20
206.7403371829
 11
204.9300894334
 21
205.1073605674
  0
LINE
  5
276
100
AcDbEntity
  8
_1
100
AcDbLine
 62
7
  6
CONTINUOUS
 10
201.8927935342
 20
203.1480449345
 11
204.8979848424
 21
204.8830825884
  0
LINE
  5
277
100
AcDbEntity
  8
_1
100
AcDbLine
 62
7
  6
CONTINUOUS
 10
201.3535545279
 20
202.7632291862
 11
187.2114777836
 21
194.5983461087
  0
LINE
  5
278
100
AcDbEntity
  8
_1
100
AcDbLine
 62
7
  6
CONTINUOUS
 10
184.414606474
 20
190.0362397383
 11
185.9810684511
 21
190.940631584
  0
LINE
  5
279
100
AcDbEntity
  8
_1
100
AcDbLine
 62
7
  6
CONTINUOUS
 10
67.0414864994
 20
121.4548014435
 11
73.4054210343
 21
125.1289988284
  0
LINE
  5
27A
100
AcDbEntity
  8
_1
100
AcDbLine
 62
7
  6
CONTINUOUS
 10
73.4071600771
 20
124.8978916717
 11
154.1853313757
 21
171.5349122301
  0
LINE
  5
27B
100
AcDbEntity
  8
_1
100
AcDbLine
 62
7
  6
CONTINUOUS
 10
49.6315205115
 20
110.0929340431
 11
35.8429956858
 21
102.1321730426
  0
LINE
  5
27C
100
AcDbEntity
  8
_1
100
AcDbLine
 62
7
  6
CONTINUOUS
 10
156.1723259162
 20
170.3877463496
 11
73.4243500045
 21
122.6134653561
  0
LINE
  5
27D
100
AcDbEntity
  8
_1
100
AcDbLine
 62
7
  6
CONTINUOUS
 10
187.8676805726
 20
201.066822661
 11
187.8401486082
 21
201.0616008343
  0
LINE
  5
27E
100
AcDbEntity
  8
_1
100
AcDbLine
 62
7
  6
CONTINUOUS
 10
154.1853313767
 20
171.5349122295
 11
156.1723259162
 21
170.3877463496
  0
LINE
  5
27F
100
AcDbEntity
  8
_1
100
AcDbLine
 62
7
  6
CONTINUOUS
 10
150.6249108594
 20
180.946122462
 11
150.6499173728
 21
177.6229241789
  0
LINE
  5
280
100
AcDbEntity
  8
_1
100
AcDbLine
 62
7
  6
CONTINUOUS
 10
147.0882172134
 20
216.030985721
 11
147.0882172134
 21
219.7868968398
  0
LINE
  5
281
100
AcDbEntity
  8
_1
100
AcDbLine
 62
7
  6
CONTINUOUS
 10
147.3382172134
 20
219.7868968398
 11
147.3382172134
 21
221.4199016741
  0
LINE
  5
282
100
AcDbEntity
  8
_1
100
AcDbLine
 62
7
  6
CONTINUOUS
 10
147.9669057018
 20
214.8062532594
 11
147.9669057018
 21
218.5621643782
  0
LINE
  5
283
100
AcDbEntity
  8
_1
100
AcDbLine
 62
7
  6
CONTINUOUS
 10
150.230352837
 20
222.726339535
 11
150.230352837
 21
245.6703692584
  0
LINE
  5
284
100
AcDbEntity
  8
_1
100
AcDbLine
 62
7
  6
CONTINUOUS
 10
146.8449692845
 20
215.7389632696
 11
146.8221333855
 21
214.2281798502
  0
LINE
  5
285
100
AcDbEntity
  8
_1
100
AcDbLine
 62
7
  6
CONTINUOUS
 10
147.4230373666
 20
214.4070570502
 11
147.4306762248
 21
214.9124306439
  0
LINE
  5
286
100
AcDbEntity
  8
_1
100
AcDbLine
 62
7
  6
CONTINUOUS
 10
209.1429885174
 20
199.7152003435
 11
207.8171278866
 21
198.9497189208
  0
LINE
  5
287
100
AcDbEntity
  8
_1
100
AcDbLine
 62
7
  6
CONTINUOUS
 10
73.4352087263
 20
121.1704138984
 11
156.8645756816
 21
169.3380938461
  0
LINE
  5
288
100
AcDbEntity
  8
_1
100
AcDbLine
 62
7
  6
CONTINUOUS
 10
73.4951187746
 20
113.2087693909
 11
157.640475403
 21
161.7898237016
  0
LINE
  5
289
100
AcDbEntity
  8
_1
100
AcDbLine
 62
7
  6
CONTINUOUS
 10
157.6422890114
 20
161.548807292
 11
184.5122348255
 21
177.0620851391
  0
LINE
  5
28A
100
AcDbEntity
  8
_1
100
AcDbLine
 62
7
  6
CONTINUOUS
 10
187.8924387022
 20
201.0073116993
 11
187.8641021495
 21
201.0034031868
  0
LINE
  5
28B
100
AcDbEntity
  8
_1
100
AcDbLine
 62
7
  6
CONTINUOUS
 10
149.9178280589
 20
182.1637248518
 11
126.570919274
 21
195.6427639868
  0
LINE
  5
28C
100
AcDbEntity
  8
_1
100
AcDbLine
 62
7
  6
CONTINUOUS
 10
157.640475403
 20
161.7898237016
 11
157.689891108
 21
155.2228071989
  0
LINE
  5
28D
100
AcDbEntity
  8
_1
100
AcDbLine
 62
7
  6
CONTINUOUS
 10
157.689891108
 20
155.2228071989
 11
157.640475403
 21
148.7128497465
  0
LINE
  5
28E
100
AcDbEntity
  8
_1
100
AcDbLine
 62
7
  6
CONTINUOUS
 10
161.3779771068
 20
206.1317521631
 11
161.175966211
 21
205.1283485607
  0
LINE
  5
28F
100
AcDbEntity
  8
_1
100
AcDbLine
 62
7
  6
CONTINUOUS
 10
209.5856528018
 20
189.6754236287
 11
205.0658482013
 21
187.0659288025
  0
LINE
  5
290
100
AcDbEntity
  8
_1
100
AcDbLine
 62
7
  6
CONTINUOUS
 10
67.1805999446
 20
102.9675555034
 11
209.6240383399
 21
185.2068221029
  0
LINE
  5
291
100
AcDbEntity
  8
_1
100
AcDbLine
 62
7
  6
CONTINUOUS
 10
57.7350377343
 20
96.8736423298
 11
56.3208300598
 21
96.057154022
  0
LINE
  5
292
100
AcDbEntity
  8
_1
100
AcDbLine
 62
7
  6
CONTINUOUS
 10
146.9469497854
 20
214.3003168541
 11
147.4230384711
 21
214.407130124
  0
LINE
  5
293
100
AcDbEntity
  8
_1
100
AcDbLine
 62
7
  6
CONTINUOUS
 10
167.0079436808
 20
213.1099249194
 11
166.9804117164
 21
213.1047030926
  0
LINE
  5
294
100
AcDbEntity
  8
_1
100
AcDbLine
 62
7
  6
CONTINUOUS
 10
167.0327018103
 20
213.0504139576
 11
167.0043652577
 21
213.0465054451
  0
LINE
  5
295
100
AcDbEntity
  8
_1
100
AcDbLine
 62
7
  6
CONTINUOUS
 10
182.3161744134
 20
201.0033908031
 11
182.2878355101
 21
201.007299521
  0
LINE
  5
296
100
AcDbEntity
  8
_1
100
AcDbLine
 62
7
  6
CONTINUOUS
 10
167.292100876
 20
202.2151512909
 11
167.2919058958
 21
202.2972926349
  0
LINE
  5
297
100
AcDbEntity
  8
_1
100
AcDbLine
 62
7
  6
CONTINUOUS
 10
161.4804117164
 20
211.6220817494
 11
161.4804117164
 21
213.2550865837
  0
LINE
  5
298
100
AcDbEntity
  8
_1
100
AcDbLine
 62
7
  6
CONTINUOUS
 10
162.1091002047
 20
210.3973492878
 11
162.1091002047
 21
206.641438169
  0
LINE
  5
299
100
AcDbEntity
  8
_1
100
AcDbLine
 62
7
  6
CONTINUOUS
 10
162.3019960709
 20
214.7445497587
 11
162.3019960709
 21
214.5269223711
  0
LINE
  5
29A
100
AcDbEntity
  8
_1
100
AcDbLine
 62
7
  6
CONTINUOUS
 10
166.158808226
 20
214.4896706177
 11
166.158808226
 21
214.7442992262
  0
LINE
  5
29B
100
AcDbEntity
  8
_1
100
AcDbLine
 62
7
  6
CONTINUOUS
 10
166.3517408918
 20
206.6414483671
 11
166.3517408918
 21
210.3973594859
  0
LINE
  5
29C
100
AcDbEntity
  8
_1
100
AcDbLine
 62
7
  6
CONTINUOUS
 10
166.9804117164
 20
211.6220817494
 11
166.9804117164
 21
213.2550865837
  0
LINE
  5
29D
100
AcDbEntity
  8
_1
100
AcDbLine
 62
7
  6
CONTINUOUS
 10
167.9479541053
 20
203.9878834627
 11
167.9479541053
 21
207.7437945815
  0
LINE
  5
29E
100
AcDbEntity
  8
_1
100
AcDbLine
 62
7
  6
CONTINUOUS
 10
168.1979541053
 20
207.7437945815
 11
168.1979541053
 21
209.3767994158
  0
LINE
  5
29F
100
AcDbEntity
  8
_1
100
AcDbLine
 62
7
  6
CONTINUOUS
 10
168.8266425936
 20
202.7631510011
 11
168.8266425936
 21
206.5190621199
  0
LINE
  5
2A0
100
AcDbEntity
  8
_1
100
AcDbLine
 62
7
  6
CONTINUOUS
 10
160.4991201885
 20
207.367531692
 11
160.4985031084
 21
207.285525181
  0
LINE
  5
2A1
100
AcDbEntity
  8
_1
100
AcDbLine
 62
7
  6
CONTINUOUS
 10
207.8472689226
 20
178.0171341024
 11
209.5080761426
 21
178.9759958743
  0
LINE
  5
2A2
100
AcDbEntity
  8
_1
100
AcDbLine
 62
7
  6
CONTINUOUS
 10
207.8466614535
 20
177.9371069539
 11
157.6422890114
 21
148.951772029
  0
LINE
  5
2A3
100
AcDbEntity
  8
_1
100
AcDbLine
 62
7
  6
CONTINUOUS
 10
157.640475403
 20
148.7128497465
 11
73.4951187746
 21
100.1317954358
  0
LINE
  5
2A4
100
AcDbEntity
  8
_1
100
AcDbLine
 62
7
  6
CONTINUOUS
 10
207.0623966325
 20
171.0497253892
 11
156.8580241904
 21
142.0643904643
  0
LINE
  5
2A5
100
AcDbEntity
  8
_1
100
AcDbLine
 62
7
  6
CONTINUOUS
 10
156.8645756816
 20
142.0604911599
 11
73.4478152181
 21
93.9000895302
  0
LINE
  5
2A6
100
AcDbEntity
  8
_1
100
AcDbLine
 62
7
  6
CONTINUOUS
 10
156.6797959364
 20
141.7725407971
 11
206.8701235503
 21
170.7497669849
  0
LINE
  5
2A7
100
AcDbEntity
  8
_1
100
AcDbLine
 62
7
  6
CONTINUOUS
 10
156.6723236778
 20
141.760637471
 11
73.4463753297
 21
93.71040061
  0
LINE
  5
2A8
100
AcDbEntity
  8
_1
100
AcDbLine
 62
7
  6
CONTINUOUS
 10
202.0685586793
 20
167.9167454894
 11
197.8479728214
 21
165.4800036536
  0
LINE
  5
2A9
100
AcDbEntity
  8
_1
100
AcDbLine
 62
7
  6
CONTINUOUS
 10
150.4358538446
 20
138.0995360658
 11
197.8005117286
 21
165.4453708126
  0
LINE
  5
2AA
100
AcDbEntity
  8
_1
100
AcDbLine
 62
7
  6
CONTINUOUS
 10
150.4166461465
 20
138.0860432442
 11
73.4458957776
 21
93.647225063
  0
LINE
  5
2AB
100
AcDbEntity
  8
_1
100
AcDbLine
 62
7
  6
CONTINUOUS
 10
161.4564375216
 20
213.0464930615
 11
161.4280986182
 21
213.0504017793
  0
LINE
  5
2AC
100
AcDbEntity
  8
_1
100
AcDbLine
 62
7
  6
CONTINUOUS
 10
182.3401486082
 20
201.0616404146
 11
182.3126152641
 21
201.0668642618
  0
LINE
  5
2AD
100
AcDbEntity
  8
_1
100
AcDbLine
 62
7
  6
CONTINUOUS
 10
171.0900897289
 20
210.6832372767
 11
171.0900897289
 21
233.6272670001
  0
LINE
  5
2AE
100
AcDbEntity
  8
_1
100
AcDbLine
 62
7
  6
CONTINUOUS
 10
170.0836877714
 20
201.7516414287
 11
170.0843048516
 21
201.8336479397
  0
LINE
  5
2AF
100
AcDbEntity
  8
_1
100
AcDbLine
 62
7
  6
CONTINUOUS
 10
73.4054210343
 20
88.3151376842
 11
67.0414864994
 21
84.6409402994
  0
LINE
  5
2B0
100
AcDbEntity
  8
_1
100
AcDbLine
 62
7
  6
CONTINUOUS
 10
66.0060613043
 20
82.3875590551
 11
72.3699958392
 21
86.06175644
  0
LINE
  5
2B1
100
AcDbEntity
  8
_1
100
AcDbLine
 62
7
  6
CONTINUOUS
 10
161.4804117164
 20
213.1047426729
 11
161.4528783723
 21
213.1099665201
  0
LINE
  5
2B2
100
AcDbEntity
  8
_1
100
AcDbLine
 62
7
  6
CONTINUOUS
 10
181.5862752706
 20
194.906649299
 11
176.787773873
 21
197.6770026989
  0
LINE
  5
2B3
100
AcDbEntity
  8
_1
100
AcDbLine
 62
7
  6
CONTINUOUS
 10
153.4408650882
 20
211.1560418339
 11
148.6423636905
 21
213.9263952338
  0
LINE
  5
2B4
100
AcDbEntity
  8
_1
100
AcDbLine
 62
7
  6
CONTINUOUS
 10
181.7630512299
 20
195.0087103375
 11
170.0836877714
 21
201.7516414287
  0
LINE
  5
2B5
100
AcDbEntity
  8
_1
100
AcDbLine
 62
7
  6
CONTINUOUS
 10
160.4985031084
 20
207.285525181
 11
148.8191396498
 21
214.0284562723
  0
LINE
  5
2B6
100
AcDbEntity
  8
_1
100
AcDbLine
 62
7
  6
CONTINUOUS
 10
183.1527488153
 20
194.2887489878
 11
170.0843048516
 21
201.8336479397
  0
LINE
  5
2B7
100
AcDbEntity
  8
_1
100
AcDbLine
 62
7
  6
CONTINUOUS
 10
160.4991201885
 20
207.367531692
 11
147.4306762248
 21
214.9124306439
  0
LINE
  5
2B8
100
AcDbEntity
  8
_1
100
AcDbLine
 62
7
  6
CONTINUOUS
 10
182.9688370966
 20
194.5983359107
 11
168.8266425936
 21
202.7631510011
  0
LINE
  5
2B9
100
AcDbEntity
  8
_1
100
AcDbLine
 62
7
  6
CONTINUOUS
 10
162.1091002047
 20
206.641438169
 11
147.9669057018
 21
214.8062532594
  0
LINE
  5
2BA
100
AcDbEntity
  8
_1
100
AcDbLine
 62
7
  6
CONTINUOUS
 10
182.9688370966
 20
198.3542470295
 11
168.8266425936
 21
206.5190621199
  0
LINE
  5
2BB
100
AcDbEntity
  8
_1
100
AcDbLine
 62
7
  6
CONTINUOUS
 10
162.1091002047
 20
210.3973492878
 11
147.9669057018
 21
218.5621643782
  0
LINE
  5
2BC
100
AcDbEntity
  8
_1
100
AcDbLine
 62
7
  6
CONTINUOUS
 10
184.5122348255
 20
177.0620851391
 11
184.414606474
 21
190.0362397383
  0
LINE
  5
2BD
100
AcDbEntity
  8
_1
100
AcDbLine
 62
7
  6
CONTINUOUS
 10
182.3401486082
 20
199.5789794911
 11
182.3401486082
 21
201.2119843253
  0
LINE
  5
2BE
100
AcDbEntity
  8
_1
100
AcDbLine
 62
7
  6
CONTINUOUS
 10
182.9688370966
 20
198.3542470295
 11
182.9688370966
 21
194.5983359107
  0
LINE
  5
2BF
100
AcDbEntity
  8
_1
100
AcDbLine
 62
7
  6
CONTINUOUS
 10
183.1527488153
 20
194.2887489878
 11
183.1527488471
 21
193.7789651663
  0
LINE
  5
2C0
100
AcDbEntity
  8
_1
100
AcDbLine
 62
7
  6
CONTINUOUS
 10
183.1617329628
 20
202.7015544991
 11
183.1617329628
 21
202.4838201128
  0
LINE
  5
2C1
100
AcDbEntity
  8
_1
100
AcDbLine
 62
7
  6
CONTINUOUS
 10
185.9810682468
 20
194.2139649715
 11
185.9810684511
 21
190.940631584
  0
LINE
  5
2C2
100
AcDbEntity
  8
_1
100
AcDbLine
 62
7
  6
CONTINUOUS
 10
187.0185451179
 20
202.4465683594
 11
187.0185451179
 21
202.7011772661
  0
LINE
  5
2C3
100
AcDbEntity
  8
_1
100
AcDbLine
 62
7
  6
CONTINUOUS
 10
187.2114777836
 20
194.5983461087
 11
187.2114777836
 21
198.3542572275
  0
LINE
  5
2C4
100
AcDbEntity
  8
_1
100
AcDbLine
 62
7
  6
CONTINUOUS
 10
187.8401486082
 20
199.5789794911
 11
187.8401486082
 21
201.2119843253
  0
LINE
  5
2C5
100
AcDbEntity
  8
_1
100
AcDbLine
 62
7
  6
CONTINUOUS
 10
190.507753505
 20
243.4701806326
 11
190.507753505
 21
242.8939198106
  0
LINE
  5
2C6
100
AcDbEntity
  8
_1
100
AcDbLine
 62
7
  6
CONTINUOUS
 10
194.9896258809
 20
204.9678667134
 11
194.9896258809
 21
219.0909285153
  0
LINE
  5
2C7
100
AcDbEntity
  8
_1
100
AcDbLine
 62
7
  6
CONTINUOUS
 10
202.476693658
 20
204.2155242476
 11
202.4226664943
 21
203.941715724
  0
LINE
  5
2C8
100
AcDbEntity
  8
_1
100
AcDbLine
 62
7
  6
CONTINUOUS
 10
202.2322253525
 20
206.6649378837
 11
204.9300894334
 21
205.1073605674
  0
LINE
  5
2C9
100
AcDbEntity
  8
_1
100
AcDbLine
 62
7
  6
CONTINUOUS
 10
202.6324842804
 20
209.699779548
 11
207.7585047823
 21
206.7403371829
  0
LINE
  5
2CA
100
AcDbEntity
  8
_1
100
AcDbLine
 62
7
  6
CONTINUOUS
 10
201.3535545279
 20
206.519140305
 11
201.3535545279
 21
202.7632291862
  0
LINE
  5
2CB
100
AcDbEntity
  8
_1
100
AcDbLine
 62
7
  6
CONTINUOUS
 10
201.9822253525
 20
207.7438625685
 11
201.9822253525
 21
209.297185596
  0
LINE
  5
2CC
100
AcDbEntity
  8
_1
100
AcDbLine
 62
7
  6
CONTINUOUS
 10
202.2322253525
 20
203.9879514497
 11
202.2322253525
 21
207.7438625685
  0
LINE
  5
2CD
100
AcDbEntity
  8
_1
100
AcDbLine
 62
7
  6
CONTINUOUS
 10
204.8980013648
 20
204.8808868702
 11
205.0658482013
 21
182.5751655083
  0
LINE
  5
2CE
100
AcDbEntity
  8
_1
100
AcDbLine
 62
7
  6
CONTINUOUS
 10
205.0658482013
 20
187.0659288025
 11
204.9300894334
 21
205.1073605674
  0
LINE
  5
2CF
100
AcDbEntity
  8
_1
100
AcDbLine
 62
7
  6
CONTINUOUS
 10
207.7585047823
 20
206.7403371829
 11
207.8171278866
 21
198.9497189208
  0
LINE
  5
2D0
100
AcDbEntity
  8
_1
100
AcDbLine
 62
7
  6
CONTINUOUS
 10
205.0658482013
 20
187.0659288025
 11
205.0658482013
 21
182.5751655083
  0
LINE
  5
2D1
100
AcDbEntity
  8
_1
100
AcDbLine
 62
7
  6
CONTINUOUS
 10
210.0026683539
 20
230.5632732472
 11
210.0026683539
 21
218.3453839725
  0
LINE
  5
2D2
100
AcDbEntity
  8
_1
100
AcDbLine
 62
7
  6
CONTINUOUS
 10
205.0658482013
 20
182.5751655083
 11
205.0182461047
 21
176.3041303384
  0
LINE
  5
2D3
100
AcDbEntity
  8
_1
100
AcDbLine
 62
7
  6
CONTINUOUS
 10
207.8472689226
 20
178.0171341024
 11
207.8466614535
 21
177.9371069539
  0
ARC
  5
2D4
100
AcDbEntity
  8
_1
100
AcDbCircle
 62
7
  6
CONTINUOUS
 10
-57.9843489804
 20
187.0708020641
 40
267.6148788566
100
AcDbArc
 50
358.2666547304
 51
359.6009226061
  0
ARC
  5
2D5
100
AcDbEntity
  8
_1
100
AcDbCircle
 62
7
  6
CONTINUOUS
 10
-49.8534437308
 20
185.2123615902
 40
259.4774821298
100
AcDbArc
 50
359.9987768139
 51
0.985546903
  0
ARC
  5
2D6
100
AcDbEntity
  8
_1
100
AcDbCircle
 62
7
  6
CONTINUOUS
 10
275.0658024485
 20
-3.8942305117
 40
248.7678857443
100
AcDbArc
 50
125.0116959385
 51
126.0265302396
  0
ARC
  5
2D7
100
AcDbEntity
  8
_1
100
AcDbCircle
 62
7
  6
CONTINUOUS
 10
78.5285707765
 20
14.0506039438
 40
227.0054371112
100
AcDbArc
 50
54.8737427754
 51
55.2857760028
  0
ARC
  5
2D8
100
AcDbEntity
  8
_1
100
AcDbCircle
 62
7
  6
CONTINUOUS
 10
102.5903848255
 20
159.6651648179
 40
55.0841198846
100
AcDbArc
 50
1.9596538675
 51
2.2070718753
  0
ARC
  5
2D9
100
AcDbEntity
  8
_1
100
AcDbCircle
 62
7
  6
CONTINUOUS
 10
109.1654265793
 20
150.6784604772
 40
48.5076039839
100
AcDbArc
 50
357.6746141686
 51
357.9600545674
  0
ARC
  5
2DA
100
AcDbEntity
  8
_1
100
AcDbCircle
 62
7
  6
CONTINUOUS
 10
168.4156045395
 20
178.7933190808
 40
39.4149436426
100
AcDbArc
 50
348.6697761798
 51
352.2358027164
  0
ARC
  5
2DB
100
AcDbEntity
  8
_1
100
AcDbCircle
 62
7
  6
CONTINUOUS
 10
62.1443514232
 20
122.7169579963
 40
28.4673882971
100
AcDbArc
 50
201.1116259143
 51
202.2890674857
  0
ARC
  5
2DC
100
AcDbEntity
  8
_1
100
AcDbCircle
 62
7
  6
CONTINUOUS
 10
61.8241415377
 20
122.5928783768
 40
28.123978997
100
AcDbArc
 50
200.4261052206
 51
201.1107778011
  0
ARC
  5
2DD
100
AcDbEntity
  8
_1
100
AcDbCircle
 62
7
  6
CONTINUOUS
 10
62.7878942238
 20
123.1684333151
 40
28.020323654
100
AcDbArc
 50
199.940767637
 51
201.1113821175
  0
ARC
  5
2DE
100
AcDbEntity
  8
_1
100
AcDbCircle
 62
7
  6
CONTINUOUS
 10
159.1463271989
 20
178.4792066235
 40
8.614175741
100
AcDbArc
 50
206.2466869002
 51
206.4131127316
  0
ARC
  5
2DF
100
AcDbEntity
  8
_1
100
AcDbCircle
 62
7
  6
CONTINUOUS
 10
159.1410796876
 20
178.4782461298
 40
8.6090517072
100
AcDbArc
 50
206.5325004227
 51
213.557258645
  0
ARC
  5
2E0
100
AcDbEntity
  8
_1
100
AcDbCircle
 62
7
  6
CONTINUOUS
 10
159.0214347799
 20
178.3980602407
 40
8.4653576843
100
AcDbArc
 50
213.6645386731
 51
214.5713239581
  0
ARC
  5
2E1
100
AcDbEntity
  8
_1
100
AcDbCircle
 62
7
  6
CONTINUOUS
 10
157.0263269572
 20
177.8132347983
 40
6.3857315484
100
AcDbArc
 50
189.4029386474
 51
190.839352514
  0
ARC
  5
2E2
100
AcDbEntity
  8
_1
100
AcDbCircle
 62
7
  6
CONTINUOUS
 10
41.6407594442
 20
123.9674767106
 40
5.9899225777
100
AcDbArc
 50
127.3829258575
 51
130.9620136732
  0
ARC
  5
2E3
100
AcDbEntity
  8
_1
100
AcDbCircle
 62
7
  6
CONTINUOUS
 10
53.1576853756
 20
104.0101218964
 40
5.9695493672
100
AcDbArc
 50
288.7923449264
 51
295.3450571441
  0
ARC
  5
2E4
100
AcDbEntity
  8
_1
100
AcDbCircle
 62
7
  6
CONTINUOUS
 10
50.9323477788
 20
139.1229430942
 40
4.6032915323
100
AcDbArc
 50
132.0793719952
 51
132.3112406695
  0
ARC
  5
2E5
100
AcDbEntity
  8
_1
100
AcDbCircle
 62
7
  6
CONTINUOUS
 10
50.9063738155
 20
139.1514608091
 40
4.5647181384
100
AcDbArc
 50
132.3111050545
 51
132.6400361615
  0
ARC
  5
2E6
100
AcDbEntity
  8
_1
100
AcDbCircle
 62
7
  6
CONTINUOUS
 10
50.3807750002
 20
142.57305513
 40
2.7530333461
100
AcDbArc
 50
134.9209345662
 51
135.2047915934
  0
ARC
  5
2E7
100
AcDbEntity
  8
_1
100
AcDbCircle
 62
7
  6
CONTINUOUS
 10
150.8178759839
 20
220.7721125533
 40
2.4329228735
100
AcDbArc
 50
299.9573572997
 51
303.5437153026
  0
ARC
  5
2E8
100
AcDbEntity
  8
_1
100
AcDbCircle
 62
7
  6
CONTINUOUS
 10
171.6776441278
 20
208.7289613284
 40
2.4328648431
100
AcDbArc
 50
299.9572954797
 51
303.5458790014
  0
ARC
  5
2E9
100
AcDbEntity
  8
_1
100
AcDbCircle
 62
7
  6
CONTINUOUS
 10
148.9220275995
 20
180.7723065627
 40
1.727245426
100
AcDbArc
 50
26.5140032506
 51
33.2666632744
  0
ARC
  5
2EA
100
AcDbEntity
  8
_1
100
AcDbCircle
 62
7
  6
CONTINUOUS
 10
155.175406564
 20
169.0041429985
 40
1.720602327
100
AcDbArc
 50
31.7480660627
 51
34.5437830221
  0
ARC
  5
2EB
100
AcDbEntity
  8
_1
100
AcDbCircle
 62
7
  6
CONTINUOUS
 10
148.9454570811
 20
180.7840891815
 40
1.7010201798
100
AcDbArc
 50
25.0650474318
 51
26.5111712533
  0
ARC
  5
2EC
100
AcDbEntity
  8
_1
100
AcDbCircle
 62
7
  6
CONTINUOUS
 10
148.953438113
 20
180.7927293767
 40
1.689757589
100
AcDbArc
 50
33.2717921435
 51
35.3667395209
  0
ARC
  5
2ED
100
AcDbEntity
  8
_1
100
AcDbCircle
 62
7
  6
CONTINUOUS
 10
148.9909514821
 20
180.820835363
 40
1.6428992658
100
AcDbArc
 50
35.3246671143
 51
40.3284107179
  0
ARC
  5
2EE
100
AcDbEntity
  8
_1
100
AcDbCircle
 62
7
  6
CONTINUOUS
 10
149.0017667551
 20
180.8093049678
 40
1.6393310575
100
AcDbArc
 50
19.409374441
 51
25.1004968583
  0
ARC
  5
2EF
100
AcDbEntity
  8
_1
100
AcDbCircle
 62
7
  6
CONTINUOUS
 10
54.7988146266
 20
140.0068591345
 40
1.5399252072
100
AcDbArc
 50
336.704648935
 51
339.5857281836
  0
ARC
  5
2F0
100
AcDbEntity
  8
_1
100
AcDbCircle
 62
7
  6
CONTINUOUS
 10
54.8490174552
 20
139.988130137
 40
1.4863425836
100
AcDbArc
 50
339.5873357344
 51
343.4886108231
  0
ARC
  5
2F1
100
AcDbEntity
  8
_1
100
AcDbCircle
 62
7
  6
CONTINUOUS
 10
147.3135988909
 20
212.959617394
 40
1.3443183906
100
AcDbArc
 50
109.5131374899
 51
119.9516857444
  0
ARC
  5
2F2
100
AcDbEntity
  8
_1
100
AcDbCircle
 62
7
  6
CONTINUOUS
 10
155.6864790796
 20
169.5594741213
 40
0.9602281664
100
AcDbArc
 50
58.1340205437
 51
59.9882902111
  0
ARC
  5
2F3
100
AcDbEntity
  8
_1
100
AcDbCircle
 62
7
  6
CONTINUOUS
 10
126.242601626
 20
195.3909680874
 40
0.3469847813
100
AcDbArc
 50
104.6890328305
 51
110.2435800388
  0
ARC
  5
2F4
100
AcDbEntity
  8
_1
100
AcDbCircle
 62
7
  6
CONTINUOUS
 10
150.2541870973
 20
138.3869924485
 40
0.3397966664
100
AcDbArc
 50
308.2122519493
 51
309.6957097739
  0
ARC
  5
2F5
100
AcDbEntity
  8
_1
100
AcDbCircle
 62
7
  6
CONTINUOUS
 10
126.2392753459
 20
195.4004027782
 40
0.3370196185
100
AcDbArc
 50
110.2687378497
 51
120.5571344604
  0
ARC
  5
2F6
100
AcDbEntity
  8
_1
100
AcDbCircle
 62
7
  6
CONTINUOUS
 10
197.6319719753
 20
165.7371142875
 40
0.3369086017
100
AcDbArc
 50
300.0149982278
 51
310.0118803269
  0
ARC
  5
2F7
100
AcDbEntity
  8
_1
100
AcDbCircle
 62
7
  6
CONTINUOUS
 10
150.2565944335
 20
138.3839026702
 40
0.3358798306
100
AcDbArc
 50
300.0022073254
 51
308.2156228041
  0
ARC
  5
2F8
100
AcDbEntity
  8
_1
100
AcDbCircle
 62
7
  6
CONTINUOUS
 10
156.5050085861
 20
142.0503121692
 40
0.3344978568
100
AcDbArc
 50
300.0105605996
 51
302.1525205391
  0
ARC
  5
2F9
100
AcDbEntity
  8
_1
100
AcDbCircle
 62
7
  6
CONTINUOUS
 10
150.2494819508
 20
138.3756939604
 40
0.3344026668
100
AcDbArc
 50
299.9902673952
 51
304.0044728947
  0
ARC
  5
2FA
100
AcDbEntity
  8
_1
100
AcDbCircle
 62
7
  6
CONTINUOUS
 10
203.875499382
 20
169.4049913619
 40
0.3326808542
100
AcDbArc
 50
299.9725434482
 51
303.3153702325
  0
SPLINE
  5
2FB
100
AcDbEntity
  8
_1
100
AcDbSpline
 62
7
  6
CONTINUOUS
 70
0
 71
3
 72
14
 73
10
 74
0
 42
0.0000001
 43
0.0000001
 44
0.0000000001
 40
0.0
 40
0.0
 40
0.0
 40
0.0
 40
0.2892819322
 40
0.4225440756
 40
0.5484954465
 40
0.6678957228
 40
0.7818683223
 40
0.8919512866
 40
1.0
 40
1.0
 40
1.0
 40
1.0
 10
49.5028420961
 20
137.9135538336
 30
0.0
 10
49.327258059
 20
138.0149250313
 30
0.0
 10
49.081363369
 20
138.1842213686
 30
0.0
 10
48.8031663094
 20
138.4504723375
 30
0.0
 10
48.6338611915
 20
138.6557133372
 30
0.0
 10
48.4999935753
 20
138.8699622633
 30
0.0
 10
48.4031182384
 20
139.0913581224
 30
0.0
 10
48.3444091784
 20
139.3176157371
 30
0.0
 10
48.33126973
 20
139.4708035877
 30
0.0
 10
48.3312647488
 20
139.546530497
 30
0.0
  0
SPLINE
  5
2FC
100
AcDbEntity
  8
_1
100
AcDbSpline
 62
7
  6
CONTINUOUS
 70
0
 71
3
 72
12
 73
8
 74
0
 42
0.0000001
 43
0.0000001
 44
0.0000000001
 40
0.0
 40
0.0
 40
0.0
 40
0.0
 40
0.1081587737
 40
0.2183572733
 40
0.4513588166
 40
0.7104163033
 40
1.0
 40
1.0
 40
1.0
 40
1.0
 10
54.3312551107
 20
149.7528106634
 30
0.0
 10
54.3312554857
 20
149.7906722845
 30
0.0
 10
54.3246596677
 20
149.8672666575
 30
0.0
 10
54.2848921052
 20
150.0208313346
 30
0.0
 10
54.1827361621
 20
150.2091209846
 30
0.0
 10
53.9924975018
 20
150.4089432603
 30
0.0
 10
53.833255038
 20
150.5186145844
 30
0.0
 10
53.7454651194
 20
150.5692989709
 30
0.0
  0
SPLINE
  5
2FD
100
AcDbEntity
  8
_1
100
AcDbSpline
 62
7
  6
CONTINUOUS
 70
0
 71
3
 72
9
 73
5
 74
0
 42
0.0000001
 43
0.0000001
 44
0.0000000001
 40
0.0
 40
0.0
 40
0.0
 40
0.0
 40
0.5070326609
 40
1.0
 40
1.0
 40
1.0
 40
1.0
 10
48.4493121111
 20
140.5116999103
 30
0.0
 10
48.4110741993
 20
140.4228578834
 30
0.0
 10
48.3517309857
 20
140.2400955824
 30
0.0
 10
48.3312587955
 20
140.0488200303
 30
0.0
 10
48.3312583117
 20
139.9547816544
 30
0.0
  0
SPLINE
  5
2FE
100
AcDbEntity
  8
_1
100
AcDbSpline
 62
7
  6
CONTINUOUS
 70
0
 71
3
 72
11
 73
7
 74
0
 42
0.0000001
 43
0.0000001
 44
0.0000000001
 40
0.0
 40
0.0
 40
0.0
 40
0.0
 40
0.2331968035
 40
0.4737140674
 40
0.7278153233
 40
1.0
 40
1.0
 40
1.0
 40
1.0
 10
56.8312554689
 20
143.2207913261
 30
0.0
 10
56.8312554143
 20
143.3317457928
 30
0.0
 10
56.8058259803
 20
143.5578772507
 30
0.0
 10
56.6932007067
 20
143.8878673881
 30
0.0
 10
56.5090256655
 20
144.2051804752
 30
0.0
 10
56.3471572488
 20
144.3978617624
 30
0.0
 10
56.256961247
 20
144.490792784
 30
0.0
  0
SPLINE
  5
2FF
100
AcDbEntity
  8
_1
100
AcDbSpline
 62
7
  6
CONTINUOUS
 70
0
 71
3
 72
23
 73
19
 74
0
 42
0.0000001
 43
0.0000001
 44
0.0000000001
 40
0.0
 40
0.0
 40
0.0
 40
0.0
 40
0.0428143749
 40
0.0873963259
 40
0.135179265
 40
0.1870885821
 40
0.2435352494
 40
0.3044927504
 40
0.3695907036
 40
0.4381987302
 40
0.509496451
 40
0.5825323776
 40
0.6562761072
 40
0.7296648159
 40
0.8016523107
 40
0.8712553359
 40
0.9376070879
 40
1.0
 40
1.0
 40
1.0
 40
1.0
 10
56.8312553894
 20
142.5675893924
 30
0.0
 10
56.8312556438
 20
142.4394843598
 30
0.0
 10
56.7970036853
 20
142.1768718185
 30
0.0
 10
56.6463893348
 20
141.7976853796
 30
0.0
 10
56.401996874
 20
141.4382236612
 30
0.0
 10
56.0707565459
 20
141.1055972953
 30
0.0
 10
55.6603089116
 20
140.8056818461
 30
0.0
 10
55.179392957
 20
140.5441185594
 30
0.0
 10
54.6380804818
 20
140.3260446662
 30
0.0
 10
54.0477434597
 20
140.1559108769
 30
0.0
 10
53.4208608558
 20
140.0372654063
 30
0.0
 10
52.7707487372
 20
139.9726137042
 30
0.0
 10
52.1112619056
 20
139.9633338462
 30
0.0
 10
51.4564669831
 20
140.0096183344
 30
0.0
 10
50.8203375266
 20
140.1104881825
 30
0.0
 10
50.2163537991
 20
140.2638084231
 30
0.0
 10
49.6574453381
 20
140.4663213111
 30
0.0
 10
49.3109659437
 20
140.6371492645
 30
0.0
 10
49.1492901775
 20
140.7304907
 30
0.0
  0
SPLINE
  5
300
100
AcDbEntity
  8
_1
100
AcDbSpline
 62
7
  6
CONTINUOUS
 70
0
 71
3
 72
23
 73
19
 74
0
 42
0.0000001
 43
0.0000001
 44
0.0000000001
 40
0.0
 40
0.0
 40
0.0
 40
0.0
 40
0.0428144312
 40
0.0873962826
 40
0.1351790578
 40
0.1870881471
 40
0.2435345934
 40
0.3044919628
 40
0.3695899225
 40
0.4381980434
 40
0.5094958471
 40
0.5825317482
 40
0.6562756492
 40
0.7296638413
 40
0.801651808
 40
0.8712539461
 40
0.93760827
 40
1.0
 40
1.0
 40
1.0
 40
1.0
 10
56.3312501412
 20
139.5465304011
 30
0.0
 10
56.3312576314
 20
139.4326591799
 30
0.0
 10
56.3007989578
 20
139.1992262014
 30
0.0
 10
56.166924028
 20
138.862172745
 30
0.0
 10
55.9496875443
 20
138.5426514142
 30
0.0
 10
55.6552552779
 20
138.2469830414
 30
0.0
 10
55.290416015
 20
137.9803902175
 30
0.0
 10
54.8629373281
 20
137.7478880423
 30
0.0
 10
54.3817713225
 20
137.5540438532
 30
0.0
 10
53.8570268738
 20
137.4028145528
 30
0.0
 10
53.2997975702
 20
137.2973533905
 30
0.0
 10
52.7219197422
 20
137.2398860398
 30
0.0
 10
52.1357106367
 20
137.2316395518
 30
0.0
 10
51.553670443
 20
137.2727788847
 30
0.0
 10
50.9882255963
 20
137.3624442612
 30
0.0
 10
50.4513439032
 20
137.4987225825
 30
0.0
 10
49.9545373091
 20
137.6787399122
 30
0.0
 10
49.6465510793
 20
137.8305852904
 30
0.0
 10
49.5028420961
 20
137.9135538336
 30
0.0
  0
SPLINE
  5
301
100
AcDbEntity
  8
_1
100
AcDbSpline
 62
7
  6
CONTINUOUS
 70
0
 71
3
 72
9
 73
5
 74
0
 42
0.0000001
 43
0.0000001
 44
0.0000000001
 40
0.0
 40
0.0
 40
0.0
 40
0.0
 40
0.4945065743
 40
1.0
 40
1.0
 40
1.0
 40
1.0
 10
56.3312565782
 20
139.9547816608
 30
0.0
 10
56.3312570016
 20
140.037074546
 30
0.0
 10
56.3156709615
 20
140.2038361618
 30
0.0
 10
56.2701494253
 20
140.3649025502
 30
0.0
 10
56.2405983587
 20
140.4436624359
 30
0.0
  0
SPLINE
  5
302
100
AcDbEntity
  8
_1
100
AcDbSpline
 62
7
  6
CONTINUOUS
 70
0
 71
3
 72
14
 73
10
 74
0
 42
0.0000001
 43
0.0000001
 44
0.0000000001
 40
0.0
 40
0.0
 40
0.0
 40
0.0
 40
0.2892813038
 40
0.4225408191
 40
0.548495483
 40
0.6678950441
 40
0.7818677054
 40
0.8919510845
 40
1.0
 40
1.0
 40
1.0
 40
1.0
 10
49.1492901775
 20
140.7304907
 30
0.0
 10
48.9517585144
 20
140.8445330789
 30
0.0
 10
48.6751294466
 20
141.0349907843
 30
0.0
 10
48.3621571084
 20
141.334522069
 30
0.0
 10
48.1716856031
 20
141.565416323
 30
0.0
 10
48.0210889924
 20
141.8064505903
 30
0.0
 10
47.9120914399
 20
142.0555167526
 30
0.0
 10
47.8460671095
 20
142.3100616705
 30
0.0
 10
47.8312596697
 20
142.4823964382
 30
0.0
 10
47.8312595005
 20
142.5675893924
 30
0.0
  0
SPLINE
  5
303
100
AcDbEntity
  8
_1
100
AcDbSpline
 62
7
  6
CONTINUOUS
 70
0
 71
3
 72
11
 73
7
 74
0
 42
0.0000001
 43
0.0000001
 44
0.0000000001
 40
0.0
 40
0.0
 40
0.0
 40
0.0
 40
0.2728477547
 40
0.5270968933
 40
0.7673378612
 40
1.0
 40
1.0
 40
1.0
 40
1.0
 10
48.4271408774
 20
144.512773233
 30
0.0
 10
48.3337062343
 20
144.4186676806
 30
0.0
 10
48.1659467638
 20
144.223340519
 30
0.0
 10
47.9747442311
 20
143.9006379593
 30
0.0
 10
47.8577032707
 20
143.5644974777
 30
0.0
 10
47.8312593653
 20
143.333871763
 30
0.0
 10
47.831259421
 20
143.2207913262
 30
0.0
  0
SPLINE
  5
304
100
AcDbEntity
  8
_1
100
AcDbSpline
 62
7
  6
CONTINUOUS
 70
0
 71
3
 72
18
 73
14
 74
0
 42
0.0000001
 43
0.0000001
 44
0.0000000001
 40
0.0
 40
0.0
 40
0.0
 40
0.0
 40
0.1286527037
 40
0.2702036702
 40
0.417319971
 40
0.5616308743
 40
0.6952660153
 40
0.7562723759
 40
0.8127643809
 40
0.8647143231
 40
0.9125344095
 40
0.9571516596
 40
1.0
 40
1.0
 40
1.0
 40
1.0
 10
53.7454651194
 20
150.5692989709
 30
0.0
 10
53.5974192938
 20
150.6547713345
 30
0.0
 10
53.2622128245
 20
150.7930656028
 30
0.0
 10
52.7159296856
 20
150.9023936494
 30
0.0
 10
52.1380060149
 20
150.9183401331
 30
0.0
 10
51.5761367686
 20
150.8394689768
 30
0.0
 10
51.1455412817
 20
150.6956336559
 30
0.0
 10
50.8516736077
 20
150.535883974
 30
0.0
 10
50.669249083
 20
150.4025771969
 30
0.0
 10
50.5220394139
 20
150.2547438831
 30
0.0
 10
50.4134276308
 20
150.0949829381
 30
0.0
 10
50.3464884804
 20
149.9264600891
 30
0.0
 10
50.3312603431
 20
149.8097455111
 30
0.0
 10
50.3312597792
 20
149.7528106629
 30
0.0
  0
SPLINE
  5
305
100
AcDbEntity
  8
_1
100
AcDbSpline
 62
7
  6
CONTINUOUS
 70
0
 71
3
 72
12
 73
8
 74
0
 42
0.0000001
 43
0.0000001
 44
0.0000000001
 40
0.0
 40
0.0
 40
0.0
 40
0.0
 40
0.1118429229
 40
0.2251655443
 40
0.4613185821
 40
0.7179129332
 40
1.0
 40
1.0
 40
1.0
 40
1.0
 10
48.5312637412
 20
143.9556435011
 30
0.0
 10
48.5312560753
 20
143.8950486458
 30
0.0
 10
48.5400854727
 20
143.7728712214
 30
0.0
 10
48.593304008
 20
143.5279505043
 30
0.0
 10
48.7295874175
 20
143.2247507316
 30
0.0
 10
48.9889842339
 20
142.8908460204
 30
0.0
 10
49.210756959
 20
142.6983633501
 30
0.0
 10
49.3335439854
 20
142.6073658244
 30
0.0
  0
SPLINE
  5
306
100
AcDbEntity
  8
_1
100
AcDbSpline
 62
7
  6
CONTINUOUS
 70
0
 71
3
 72
9
 73
5
 74
0
 42
0.0000001
 43
0.0000001
 44
0.0000000001
 40
0.0
 40
0.0
 40
0.0
 40
0.0
 40
0.5035635153
 40
1.0
 40
1.0
 40
1.0
 40
1.0
 10
56.2740681158
 20
139.5657027578
 30
0.0
 10
56.2928549624
 20
139.629163205
 30
0.0
 10
56.3215538484
 20
139.7579294679
 30
0.0
 10
56.3312562426
 20
139.8895354771
 30
0.0
 10
56.3312565782
 20
139.9547816608
 30
0.0
  0
SPLINE
  5
307
100
AcDbEntity
  8
_1
100
AcDbSpline
 62
7
  6
CONTINUOUS
 70
0
 71
3
 72
14
 73
10
 74
0
 42
0.0000001
 43
0.0000001
 44
0.0000000001
 40
0.0
 40
0.0
 40
0.0
 40
0.0
 40
0.1085792961
 40
0.2191203235
 40
0.3334018608
 40
0.4529161421
 40
0.5787842411
 40
0.7117548407
 40
1.0
 40
1.0
 40
1.0
 40
1.0
 10
48.3312583117
 20
139.9547816544
 30
0.0
 10
48.3312579312
 20
139.8808246879
 30
0.0
 10
48.3438046757
 20
139.731289102
 30
0.0
 10
48.3997570352
 20
139.5102437813
 30
0.0
 10
48.4922012021
 20
139.293721795
 30
0.0
 10
48.619993518
 20
139.0838352226
 30
0.0
 10
48.7817697566
 20
138.8823694608
 30
0.0
 10
49.0476814944
 20
138.6204247715
 30
0.0
 10
49.283285229
 20
138.4527201738
 30
0.0
 10
49.4517295378
 20
138.3518573883
 30
0.0
  0
SPLINE
  5
308
100
AcDbEntity
  8
_1
100
AcDbSpline
 62
7
  6
CONTINUOUS
 70
0
 71
3
 72
16
 73
12
 74
0
 42
0.0000001
 43
0.0000001
 44
0.0000000001
 40
0.0
 40
0.0
 40
0.0
 40
0.0
 40
0.1183342752
 40
0.2470780132
 40
0.3823913695
 40
0.5196565693
 40
0.6540396526
 40
0.7810277744
 40
0.8406205321
 40
0.8971182514
 40
1.0
 40
1.0
 40
1.0
 40
1.0
 10
49.1492901775
 20
141.3836926337
 30
0.0
 10
49.4071638271
 20
141.2348125808
 30
0.0
 10
49.9784769382
 20
140.9795843673
 30
0.0
 10
50.911504786
 20
140.731638178
 30
0.0
 10
51.91731755
 20
140.6110403847
 30
0.0
 10
52.9442463115
 20
140.624131649
 30
0.0
 10
53.939681463
 20
140.7701885859
 30
0.0
 10
54.7172496199
 20
141.0013249103
 30
0.0
 10
55.27734444
 20
141.2493513776
 30
0.0
 10
55.7585315352
 20
141.5183502407
 30
0.0
 10
56.0792556444
 20
141.7672472903
 30
0.0
 10
56.259328538
 20
141.9532407927
 30
0.0
  0
SPLINE
  5
309
100
AcDbEntity
  8
_1
100
AcDbSpline
 62
7
  6
CONTINUOUS
 70
0
 71
3
 72
11
 73
7
 74
0
 42
0.0000001
 43
0.0000001
 44
0.0000000001
 40
0.0
 40
0.0
 40
0.0
 40
0.0
 40
0.2721200954
 40
0.5261981554
 40
0.766747647
 40
1.0
 40
1.0
 40
1.0
 40
1.0
 10
56.259328538
 20
141.9532407927
 30
0.0
 10
56.349173769
 20
142.0460400411
 30
0.0
 10
56.510401028
 20
142.2384211837
 30
0.0
 10
56.6937929807
 20
142.5551415594
 30
0.0
 10
56.8059391794
 20
142.8844414979
 30
0.0
 10
56.8312555235
 20
143.1100744646
 30
0.0
 10
56.8312554689
 20
143.2207913261
 30
0.0
  0
SPLINE
  5
30A
100
AcDbEntity
  8
_1
100
AcDbSpline
 62
7
  6
CONTINUOUS
 70
0
 71
3
 72
14
 73
10
 74
0
 42
0.0000001
 43
0.0000001
 44
0.0000000001
 40
0.0
 40
0.0
 40
0.0
 40
0.0
 40
0.2892818196
 40
0.4225439574
 40
0.5484954052
 40
0.6678957996
 40
0.7818684999
 40
0.891951446
 40
1.0
 40
1.0
 40
1.0
 40
1.0
 10
49.6442628635
 20
141.6694635414
 30
0.0
 10
49.4774580936
 20
141.7657661416
 30
0.0
 10
49.2438582092
 20
141.9265976155
 30
0.0
 10
48.9795709787
 20
142.1795359733
 30
0.0
 10
48.8187310494
 20
142.3745150283
 30
0.0
 10
48.6915566721
 20
142.5780516581
 30
0.0
 10
48.5995251725
 20
142.7883779013
 30
0.0
 10
48.5437515307
 20
143.0033225636
 30
0.0
 10
48.5312690402
 20
143.1488509067
 30
0.0
 10
48.5312643312
 20
143.2207913642
 30
0.0
  0
SPLINE
  5
30B
100
AcDbEntity
  8
_1
100
AcDbSpline
 62
7
  6
CONTINUOUS
 70
0
 71
3
 72
11
 73
7
 74
0
 42
0.0000001
 43
0.0000001
 44
0.0000000001
 40
0.0
 40
0.0
 40
0.0
 40
0.0
 40
0.2847422559
 40
0.5483652312
 40
0.7869851736
 40
1.0
 40
1.0
 40
1.0
 40
1.0
 10
53.7597233628
 20
141.9226546836
 30
0.0
 10
53.9874234423
 20
141.9759838019
 30
0.0
 10
54.4203217997
 20
142.1057342509
 30
0.0
 10
55.0090328481
 20
142.3787774237
 30
0.0
 10
55.4951233192
 20
142.7142010274
 30
0.0
 10
55.7519794552
 20
142.9877982224
 30
0.0
 10
55.8525596031
 20
143.1309470378
 30
0.0
  0
SPLINE
  5
30C
100
AcDbEntity
  8
_1
100
AcDbSpline
 62
7
  6
CONTINUOUS
 70
0
 71
3
 72
12
 73
8
 74
0
 42
0.0000001
 43
0.0000001
 44
0.0000000001
 40
0.0
 40
0.0
 40
0.0
 40
0.0
 40
0.1081587737
 40
0.2183572733
 40
0.4513588166
 40
0.7104163033
 40
1.0
 40
1.0
 40
1.0
 40
1.0
 10
50.3312597792
 20
149.7528106629
 30
0.0
 10
50.3312594043
 20
149.7149490418
 30
0.0
 10
50.3378552222
 20
149.6383546688
 30
0.0
 10
50.3776227847
 20
149.4847899917
 30
0.0
 10
50.4797787278
 20
149.2965003417
 30
0.0
 10
50.6700173882
 20
149.096678066
 30
0.0
 10
50.829259852
 20
148.9870067419
 30
0.0
 10
50.9170497705
 20
148.9363223554
 30
0.0
  0
SPLINE
  5
30D
100
AcDbEntity
  8
_1
100
AcDbSpline
 62
7
  6
CONTINUOUS
 70
0
 71
3
 72
11
 73
7
 74
0
 42
0.0000001
 43
0.0000001
 44
0.0000000001
 40
0.0
 40
0.0
 40
0.0
 40
0.0
 40
0.2339751685
 40
0.482714959
 40
0.7402831502
 40
1.0
 40
1.0
 40
1.0
 40
1.0
 10
49.9959635814
 20
142.2249263442
 30
0.0
 10
50.203674857
 20
142.131505919
 30
0.0
 10
50.6479055791
 20
141.9726611834
 30
0.0
 10
51.3540513498
 20
141.8206407007
 30
0.0
 10
52.0981295119
 20
141.7514157116
 30
0.0
 10
52.6028476826
 20
141.762429854
 30
0.0
 10
52.8548461435
 20
141.7826693606
 30
0.0
  0
SPLINE
  5
30E
100
AcDbEntity
  8
_1
100
AcDbSpline
 62
7
  6
CONTINUOUS
 70
0
 71
3
 72
12
 73
8
 74
0
 42
0.0000001
 43
0.0000001
 44
0.0000000001
 40
0.0
 40
0.0
 40
0.0
 40
0.0
 40
0.1493797379
 40
0.2937617012
 40
0.4318484109
 40
0.5626393423
 40
1.0
 40
1.0
 40
1.0
 40
1.0
 10
53.4368407902
 20
137.7353776122
 30
0.0
 10
53.5965105046
 20
137.7618897038
 30
0.0
 10
53.9087364594
 20
137.8259615359
 30
0.0
 10
54.3583129807
 20
137.9567715379
 30
0.0
 10
54.7768910743
 20
138.1197659433
 30
0.0
 10
55.4570828166
 20
138.4623531808
 30
0.0
 10
55.9641479743
 20
138.8923244348
 30
0.0
 10
56.1754421758
 20
139.3165004214
 30
0.0
  0
SPLINE
  5
30F
100
AcDbEntity
  8
_1
100
AcDbSpline
 62
7
  6
CONTINUOUS
 70
0
 71
3
 72
18
 73
14
 74
0
 42
0.0000001
 43
0.0000001
 44
0.0000000001
 40
0.0
 40
0.0
 40
0.0
 40
0.0
 40
0.1286527037
 40
0.2702036702
 40
0.417319971
 40
0.5616308743
 40
0.6952660153
 40
0.7562723759
 40
0.8127643809
 40
0.8647143231
 40
0.9125344095
 40
0.9571516596
 40
1.0
 40
1.0
 40
1.0
 40
1.0
 10
50.9170497705
 20
148.9363223554
 30
0.0
 10
51.0650955961
 20
148.8508499918
 30
0.0
 10
51.4003020654
 20
148.7125557235
 30
0.0
 10
51.9465852044
 20
148.603227677
 30
0.0
 10
52.5245088751
 20
148.5872811932
 30
0.0
 10
53.0863781213
 20
148.6661523496
 30
0.0
 10
53.5169736082
 20
148.8099876704
 30
0.0
 10
53.8108412823
 20
148.9697373523
 30
0.0
 10
53.9932658069
 20
149.1030441294
 30
0.0
 10
54.1404754761
 20
149.2508774433
 30
0.0
 10
54.2490872591
 20
149.4106383883
 30
0.0
 10
54.3160264095
 20
149.5791612372
 30
0.0
 10
54.3312545468
 20
149.6958758153
 30
0.0
 10
54.3312551107
 20
149.7528106634
 30
0.0
  0
SPLINE
  5
310
100
AcDbEntity
  8
_1
100
AcDbSpline
 62
7
  6
CONTINUOUS
 70
0
 71
3
 72
22
 73
18
 74
0
 42
0.0000001
 43
0.0000001
 44
0.0000000001
 40
0.0
 40
0.0
 40
0.0
 40
0.0
 40
0.0428201405
 40
0.0874079648
 40
0.1351971216
 40
0.1871131246
 40
0.2435670677
 40
0.304532526
 40
0.3696391349
 40
0.4382564049
 40
0.5095637499
 40
0.582609472
 40
0.7296275366
 40
0.8016252523
 40
0.8712367808
 40
0.9375999686
 40
1.0
 40
1.0
 40
1.0
 40
1.0
 10
56.1312505587
 20
143.220791288
 30
0.0
 10
56.1312576396
 20
143.1126136626
 30
0.0
 10
56.1023218478
 20
142.8908523521
 30
0.0
 10
55.9751407627
 20
142.5706515461
 30
0.0
 10
55.7687660819
 20
142.2671063343
 30
0.0
 10
55.4890556524
 20
141.9862215023
 30
0.0
 10
55.1424584778
 20
141.7329584285
 30
0.0
 10
54.7363548482
 20
141.5120817001
 30
0.0
 10
54.2792445792
 20
141.3279287523
 30
0.0
 10
53.7807493758
 20
141.184264656
 30
0.0
 10
53.2513347993
 20
141.0840612199
 30
0.0
 10
52.5181819343
 20
141.0112065987
 30
0.0
 10
51.7763035851
 20
141.0316364026
 30
0.0
 10
51.055409738
 20
141.1458957015
 30
0.0
 10
50.5453313713
 20
141.2753773178
 30
0.0
 10
50.0733752347
 20
141.4463894762
 30
0.0
 10
49.780786313
 20
141.5906434743
 30
0.0
 10
49.6442628635
 20
141.6694635414
 30
0.0
  0
SPLINE
  5
311
100
AcDbEntity
  8
_1
100
AcDbSpline
 62
7
  6
CONTINUOUS
 70
0
 71
3
 72
12
 73
8
 74
0
 42
0.0000001
 43
0.0000001
 44
0.0000000001
 40
0.0
 40
0.0
 40
0.0
 40
0.0
 40
0.2895824288
 40
0.5486380529
 40
0.7816405682
 40
0.8918398716
 40
1.0
 40
1.0
 40
1.0
 40
1.0
 10
50.9170497705
 20
145.7519629286
 30
0.0
 10
50.8292602181
 20
145.8026471037
 30
0.0
 10
50.6700183128
 20
145.9123174698
 30
0.0
 10
50.4797803983
 20
146.1121392355
 30
0.0
 10
50.3776229336
 20
146.3004282131
 30
0.0
 10
50.3378553778
 20
146.4539939948
 30
0.0
 10
50.33125865
 20
146.5305891317
 30
0.0
 10
50.3312595394
 20
146.5684512348
 30
0.0
  0
SPLINE
  5
312
100
AcDbEntity
  8
_1
100
AcDbSpline
 62
7
  6
CONTINUOUS
 70
0
 71
3
 72
14
 73
10
 74
0
 42
0.0000001
 43
0.0000001
 44
0.0000000001
 40
0.0
 40
0.0
 40
0.0
 40
0.0
 40
0.1080475483
 40
0.2181297703
 40
0.3321015138
 40
0.4515005468
 40
0.5774548005
 40
0.7107149345
 40
1.0
 40
1.0
 40
1.0
 40
1.0
 10
47.831259421
 20
143.2207913262
 30
0.0
 10
47.8312594629
 20
143.135599451
 30
0.0
 10
47.8460664815
 20
142.9632666465
 30
0.0
 10
47.9120898575
 20
142.7087243404
 30
0.0
 10
48.0210852658
 20
142.4596595151
 30
0.0
 10
48.1716803248
 20
142.21862599
 30
0.0
 10
48.3621506109
 20
141.9877310899
 30
0.0
 10
48.675124017
 20
141.6881963489
 30
0.0
 10
48.9517559483
 20
141.4977364941
 30
0.0
 10
49.1492901775
 20
141.3836926337
 30
0.0
  0
SPLINE
  5
313
100
AcDbEntity
  8
_1
100
AcDbSpline
 62
7
  6
CONTINUOUS
 70
0
 71
3
 72
11
 73
7
 74
0
 42
0.0000001
 43
0.0000001
 44
0.0000000001
 40
0.0
 40
0.0
 40
0.0
 40
0.0
 40
0.228884809
 40
0.4782972487
 40
0.7389453917
 40
1.0
 40
1.0
 40
1.0
 40
1.0
 10
49.5548954564
 20
138.2922958649
 30
0.0
 10
49.8111326643
 20
138.1496606803
 30
0.0
 10
50.380510256
 20
137.9111357587
 30
0.0
 10
51.3065893721
 20
137.6976844883
 30
0.0
 10
52.295053691
 20
137.6214616579
 30
0.0
 10
52.964824923
 20
137.6660751585
 30
0.0
 10
53.2959142686
 20
137.7135761521
 30
0.0
  0
SPLINE
  5
314
100
AcDbEntity
  8
_1
100
AcDbSpline
 62
7
  6
CONTINUOUS
 70
0
 71
3
 72
18
 73
14
 74
0
 42
0.0000001
 43
0.0000001
 44
0.0000000001
 40
0.0
 40
0.0
 40
0.0
 40
0.0
 40
0.0428486301
 40
0.0874664382
 40
0.1352871767
 40
0.1872376839
 40
0.2437299832
 40
0.3047362326
 40
0.4383697246
 40
0.5826780692
 40
0.729793452
 40
0.8713453769
 40
1.0
 40
1.0
 40
1.0
 40
1.0
 10
54.3312553506
 20
146.5684512379
 30
0.0
 10
54.3312540133
 20
146.5115160044
 30
0.0
 10
54.3160271279
 20
146.3948002069
 30
0.0
 10
54.2490854363
 20
146.2262759376
 30
0.0
 10
54.1404718234
 20
146.0665135211
 30
0.0
 10
53.9932598753
 20
145.9186795327
 30
0.0
 10
53.8108337522
 20
145.7853732926
 30
0.0
 10
53.5169671553
 20
145.6256257423
 30
0.0
 10
53.0863769222
 20
145.4817932744
 30
0.0
 10
52.5245146237
 20
145.4029224385
 30
0.0
 10
51.9465943142
 20
145.4188676205
 30
0.0
 10
51.4003082214
 20
145.5281941595
 30
0.0
 10
51.065097806
 20
145.6664892892
 30
0.0
 10
50.9170497705
 20
145.7519629286
 30
0.0
  0
SPLINE
  5
315
100
AcDbEntity
  8
_1
100
AcDbSpline
 62
7
  6
CONTINUOUS
 70
0
 71
3
 72
9
 73
5
 74
0
 42
0.0000001
 43
0.0000001
 44
0.0000000001
 40
0.0
 40
0.0
 40
0.0
 40
0.0
 40
0.2553414285
 40
1.0
 40
1.0
 40
1.0
 40
1.0
 10
207.8466614535
 20
177.9371069539
 30
0.0
 10
207.8330700994
 20
177.5555660298
 30
0.0
 10
207.7622812993
 20
176.0620358927
 30
0.0
 10
207.619913636
 20
174.5716567427
 30
0.0
 10
207.4692098078
 20
173.4685000333
 30
0.0
  0
SPLINE
  5
316
100
AcDbEntity
  8
_1
100
AcDbSpline
 62
7
  6
CONTINUOUS
 70
0
 71
3
 72
9
 73
5
 74
0
 42
0.0000001
 43
0.0000001
 44
0.0000000001
 40
0.0
 40
0.0
 40
0.0
 40
0.0
 40
0.2420044272
 40
1.0
 40
1.0
 40
1.0
 40
1.0
 10
202.068566546
 20
167.9167602581
 30
0.0
 10
202.0809215243
 20
167.9239011451
 30
0.0
 10
202.130200503
 20
167.9564651333
 30
0.0
 10
202.1712701358
 20
168.0007485519
 30
0.0
 10
202.1967245101
 20
168.0374887568
 30
0.0
  0
SPLINE
  5
317
100
AcDbEntity
  8
_1
100
AcDbSpline
 62
7
  6
CONTINUOUS
 70
0
 71
3
 72
9
 73
5
 74
0
 42
0.0000001
 43
0.0000001
 44
0.0000000001
 40
0.0
 40
0.0
 40
0.0
 40
0.0
 40
0.52114783
 40
1.0
 40
1.0
 40
1.0
 40
1.0
 10
207.741114893
 20
176.0839466545
 30
0.0
 10
207.8121645921
 20
175.8788889977
 30
0.0
 10
207.9216339624
 20
175.4754163082
 30
0.0
 10
207.965052854
 20
175.0586180271
 30
0.0
 10
207.9650528675
 20
174.8592131502
 30
0.0
  0
SPLINE
  5
318
100
AcDbEntity
  8
_1
100
AcDbSpline
 62
7
  6
CONTINUOUS
 70
0
 71
3
 72
9
 73
5
 74
0
 42
0.0000001
 43
0.0000001
 44
0.0000000001
 40
0.0
 40
0.0
 40
0.0
 40
0.0
 40
0.5328772855
 40
1.0
 40
1.0
 40
1.0
 40
1.0
 10
207.0623966325
 20
171.0497253892
 30
0.0
 10
207.0496200273
 20
170.9862266991
 30
0.0
 10
207.0087095932
 20
170.8684678798
 30
0.0
 10
206.9193026363
 20
170.7781440237
 30
0.0
 10
206.8701170785
 20
170.7497782205
 30
0.0
  0
SPLINE
  5
319
100
AcDbEntity
  8
_1
100
AcDbSpline
 62
7
  6
CONTINUOUS
 70
0
 71
3
 72
11
 73
7
 74
0
 42
0.0000001
 43
0.0000001
 44
0.0000000001
 40
0.0
 40
0.0
 40
0.0
 40
0.0
 40
0.2852918188
 40
0.5450239236
 40
0.7812035253
 40
1.0
 40
1.0
 40
1.0
 40
1.0
 10
207.9650531143
 20
174.8592132927
 30
0.0
 10
207.9650531231
 20
174.7281344968
 30
0.0
 10
207.9477635601
 20
174.4771337987
 30
0.0
 10
207.8615724613
 20
174.126508702
 30
0.0
 10
207.7172539203
 20
173.8284747381
 30
0.0
 10
207.5797642627
 20
173.6669761239
 30
0.0
 10
207.5041044209
 20
173.6007847367
 30
0.0
  0
SPLINE
  5
31A
100
AcDbEntity
  8
_1
100
AcDbSpline
 62
7
  6
CONTINUOUS
 70
0
 71
3
 72
9
 73
5
 74
0
 42
0.0000001
 43
0.0000001
 44
0.0000000001
 40
0.0
 40
0.0
 40
0.0
 40
0.0
 40
0.2521531082
 40
1.0
 40
1.0
 40
1.0
 40
1.0
 10
209.5856528018
 20
189.6754236287
 30
0.0
 10
209.5653598344
 20
190.5198856476
 30
0.0
 10
209.4683417693
 20
193.8684682639
 30
0.0
 10
209.3046256491
 20
197.2151540867
 30
0.0
 10
209.1429885174
 20
199.7152003435
 30
0.0
  0
SPLINE
  5
31B
100
AcDbEntity
  8
_1
100
AcDbSpline
 62
7
  6
CONTINUOUS
 70
0
 71
3
 72
15
 73
11
 74
0
 42
0.0000001
 43
0.0000001
 44
0.0000000001
 40
0.0
 40
0.0
 40
0.0
 40
0.0
 40
0.1279658049
 40
0.2613489956
 40
0.3969702923
 40
0.5314741536
 40
0.661593799
 40
0.7844089711
 40
0.8976395139
 40
1.0
 40
1.0
 40
1.0
 40
1.0
 10
171.1311395948
 20
215.6936801008
 30
0.0
 10
170.3240735744
 20
215.4297062781
 30
0.0
 10
168.637761282
 20
215.0022603083
 30
0.0
 10
166.0205661532
 20
214.6599101307
 30
0.0
 10
163.3379067983
 20
214.6102801673
 30
0.0
 10
160.68773625
 20
214.8553713497
 30
0.0
 10
158.1659885437
 20
215.3861811012
 30
0.0
 10
155.8630504344
 20
216.1842616719
 30
0.0
 10
153.8618516191
 20
217.2211273085
 30
0.0
 10
152.7160023389
 20
218.0959468997
 30
0.0
 10
152.2264825769
 20
218.5668236938
 30
0.0
  0
SPLINE
  5
31C
100
AcDbEntity
  8
_1
100
AcDbSpline
 62
7
  6
CONTINUOUS
 70
0
 71
3
 72
11
 73
7
 74
0
 42
0.0000001
 43
0.0000001
 44
0.0000000001
 40
0.0
 40
0.0
 40
0.0
 40
0.0
 40
0.2742015802
 40
0.5287766079
 40
0.7684443046
 40
1.0
 40
1.0
 40
1.0
 40
1.0
 10
152.2264825769
 20
218.5668236938
 30
0.0
 10
151.914570507
 20
218.8668568425
 30
0.0
 10
151.3539869084
 20
219.4910504651
 30
0.0
 10
150.7127000484
 20
220.5291752109
 30
0.0
 10
150.319375348
 20
221.6143833327
 30
0.0
 10
150.2303587512
 20
222.3608584786
 30
0.0
 10
150.2303589827
 20
222.7263395347
 30
0.0
  0
SPLINE
  5
31D
100
AcDbEntity
  8
_1
100
AcDbSpline
 62
7
  6
CONTINUOUS
 70
0
 71
3
 72
9
 73
5
 74
0
 42
0.0000001
 43
0.0000001
 44
0.0000000001
 40
0.0
 40
0.0
 40
0.0
 40
0.0
 40
0.5137302264
 40
1.0
 40
1.0
 40
1.0
 40
1.0
 10
147.2679110863
 20
220.3773260737
 30
0.0
 10
147.2111378062
 20
220.2869221735
 30
0.0
 10
147.1206826565
 20
220.0968025575
 30
0.0
 10
147.0882392645
 20
219.8879429779
 30
0.0
 10
147.0882392658
 20
219.7868968398
 30
0.0
  0
SPLINE
  5
31E
100
AcDbEntity
  8
_1
100
AcDbSpline
 62
7
  6
CONTINUOUS
 70
0
 71
3
 72
22
 73
18
 74
0
 42
0.0000001
 43
0.0000001
 44
0.0000000001
 40
0.0
 40
0.0
 40
0.0
 40
0.0
 40
0.0428209723
 40
0.0874095301
 40
0.1351992431
 40
0.1871155957
 40
0.2435696832
 40
0.304535103
 40
0.3696415234
 40
0.4382584935
 40
0.5095654641
 40
0.5826107782
 40
0.7296280205
 40
0.8016254407
 40
0.871236772
 40
0.937599885
 40
1.0
 40
1.0
 40
1.0
 40
1.0
 10
186.7291873756
 20
263.0388240988
 30
0.0
 10
187.0127027692
 20
263.2025355331
 30
0.0
 10
187.6377067727
 20
263.462264723
 30
0.0
 10
188.6693739399
 20
263.6134650644
 30
0.0
 10
189.7772203456
 20
263.531907175
 30
0.0
 10
190.9366437973
 20
263.2238570528
 30
0.0
 10
192.1248823104
 20
262.6987090083
 30
0.0
 10
193.3182807153
 20
261.9685961001
 30
0.0
 10
194.4926094945
 20
261.0492317698
 30
0.0
 10
195.6234416773
 20
259.9601358175
 30
0.0
 10
196.6871525176
 20
258.7242399982
 30
0.0
 10
197.9874713785
 20
256.9129899253
 30
0.0
 10
199.0565023341
 20
254.9377130759
 30
0.0
 10
199.8478604357
 20
252.8754522954
 30
0.0
 10
200.2803263359
 20
251.3426745146
 30
0.0
 10
200.5462592453
 20
249.8469657228
 30
0.0
 10
200.6109129729
 20
248.8618457409
 30
0.0
 10
200.6109129729
 20
248.3847663798
 30
0.0
  0
SPLINE
  5
31F
100
AcDbEntity
  8
_1
100
AcDbSpline
 62
7
  6
CONTINUOUS
 70
0
 71
3
 72
12
 73
8
 74
0
 42
0.0000001
 43
0.0000001
 44
0.0000000001
 40
0.0
 40
0.0
 40
0.0
 40
0.0
 40
0.118238676
 40
0.2363326778
 40
0.4766784563
 40
0.7291889265
 40
1.0
 40
1.0
 40
1.0
 40
1.0
 10
166.9804117164
 20
213.2550865837
 30
0.0
 10
166.9804117164
 20
213.336103765
 30
0.0
 10
166.964539706
 20
213.4984970878
 30
0.0
 10
166.8710097814
 20
213.8131592193
 30
0.0
 10
166.6442308226
 20
214.1751094899
 30
0.0
 10
166.2449618759
 20
214.5215999071
 30
0.0
 10
165.9258014432
 20
214.691199622
 30
0.0
 10
165.7549000103
 20
214.7634848527
 30
0.0
  0
SPLINE
  5
320
100
AcDbEntity
  8
_1
100
AcDbSpline
 62
7
  6
CONTINUOUS
 70
0
 71
3
 72
9
 73
5
 74
0
 42
0.0000001
 43
0.0000001
 44
0.0000000001
 40
0.0
 40
0.0
 40
0.0
 40
0.0
 40
0.2552653577
 40
1.0
 40
1.0
 40
1.0
 40
1.0
 10
162.7510807771
 20
214.7821430764
 30
0.0
 10
162.7193623129
 20
214.7692986824
 30
0.0
 10
162.5959279001
 20
214.7169910178
 30
0.0
 10
162.4758782402
 20
214.6565603557
 30
0.0
 10
162.389415954
 20
214.6066416294
 30
0.0
  0
SPLINE
  5
321
100
AcDbEntity
  8
_1
100
AcDbSpline
 62
7
  6
CONTINUOUS
 70
0
 71
3
 72
11
 73
7
 74
0
 42
0.0000001
 43
0.0000001
 44
0.0000000001
 40
0.0
 40
0.0
 40
0.0
 40
0.0
 40
0.2897781767
 40
0.5490726313
 40
0.7822276909
 40
1.0
 40
1.0
 40
1.0
 40
1.0
 10
147.9669057018
 20
214.8062532594
 30
0.0
 10
147.8352333408
 20
214.8822726127
 30
0.0
 10
147.5963778241
 20
215.0467177126
 30
0.0
 10
147.311006466
 20
215.3467492913
 30
0.0
 10
147.1304369521
 20
215.6785404842
 30
0.0
 10
147.0882392673
 20
215.9167245909
 30
0.0
 10
147.0882392658
 20
216.0309857211
 30
0.0
  0
SPLINE
  5
322
100
AcDbEntity
  8
_1
100
AcDbSpline
 62
7
  6
CONTINUOUS
 70
0
 71
3
 72
13
 73
9
 74
0
 42
0.0000001
 43
0.0000001
 44
0.0000000001
 40
0.0
 40
0.0
 40
0.0
 40
0.0
 40
0.1142483233
 40
0.2375469957
 40
0.4999994774
 40
0.7624522452
 40
0.8857512516
 40
1.0
 40
1.0
 40
1.0
 40
1.0
 10
166.3517408918
 20
206.6414483671
 30
0.0
 10
166.2065304669
 20
206.5576115896
 30
0.0
 10
165.8889460367
 20
206.4097168912
 30
0.0
 10
165.1851172533
 20
206.1959547886
 30
0.0
 10
164.2304238715
 20
206.0921138472
 30
0.0
 10
163.2757295716
 20
206.1959503745
 30
0.0
 10
162.5718981507
 20
206.4097090148
 30
0.0
 10
162.2543117745
 20
206.5576021268
 30
0.0
 10
162.1091002047
 20
206.641438169
 30
0.0
  0
SPLINE
  5
323
100
AcDbEntity
  8
_1
100
AcDbSpline
 62
7
  6
CONTINUOUS
 70
0
 71
3
 72
11
 73
7
 74
0
 42
0.0000001
 43
0.0000001
 44
0.0000000001
 40
0.0
 40
0.0
 40
0.0
 40
0.0
 40
0.2652883108
 40
0.5168487599
 40
0.7600871689
 40
1.0
 40
1.0
 40
1.0
 40
1.0
 10
162.389415954
 20
214.6066416294
 30
0.0
 10
162.2590320033
 20
214.5313648698
 30
0.0
 10
162.016701191
 20
214.3623741191
 30
0.0
 10
161.7213347484
 20
214.0423989703
 30
0.0
 10
161.5265885597
 20
213.6673312088
 30
0.0
 10
161.4804117164
 20
213.391239898
 30
0.0
 10
161.4804117164
 20
213.2550865837
 30
0.0
  0
SPLINE
  5
324
100
AcDbEntity
  8
_1
100
AcDbSpline
 62
7
  6
CONTINUOUS
 70
0
 71
3
 72
9
 73
5
 74
0
 42
0.0000001
 43
0.0000001
 44
0.0000000001
 40
0.0
 40
0.0
 40
0.0
 40
0.0
 40
0.5186694468
 40
1.0
 40
1.0
 40
1.0
 40
1.0
 10
150.2334786678
 20
223.21651464
 30
0.0
 10
149.8785141098
 20
223.2282665298
 30
0.0
 10
149.1893165284
 20
223.1697826705
 30
0.0
 10
148.5326562496
 20
222.9362515939
 30
0.0
 10
148.2472214511
 20
222.7714567198
 30
0.0
  0
SPLINE
  5
325
100
AcDbEntity
  8
_1
100
AcDbSpline
 62
7
  6
CONTINUOUS
 70
0
 71
3
 72
11
 73
7
 74
0
 42
0.0000001
 43
0.0000001
 44
0.0000000001
 40
0.0
 40
0.0
 40
0.0
 40
0.0
 40
0.2652883108
 40
0.5168487599
 40
0.7600871689
 40
1.0
 40
1.0
 40
1.0
 40
1.0
 10
148.2472214511
 20
222.7714567198
 30
0.0
 10
148.1168375004
 20
222.6961799602
 30
0.0
 10
147.8745066881
 20
222.5271892095
 30
0.0
 10
147.5791402454
 20
222.2072140607
 30
0.0
 10
147.3843940568
 20
221.8321462992
 30
0.0
 10
147.3382172134
 20
221.5560549884
 30
0.0
 10
147.3382172134
 20
221.4199016741
 30
0.0
  0
SPLINE
  5
326
100
AcDbEntity
  8
_1
100
AcDbSpline
 62
7
  6
CONTINUOUS
 70
0
 71
3
 72
9
 73
5
 74
0
 42
0.0000001
 43
0.0000001
 44
0.0000000001
 40
0.0
 40
0.0
 40
0.0
 40
0.0
 40
0.2547173421
 40
1.0
 40
1.0
 40
1.0
 40
1.0
 10
148.4972203319
 20
222.7466945803
 30
0.0
 10
148.4839529926
 20
222.7390347242
 30
0.0
 10
148.4321978338
 20
222.7083941843
 30
0.0
 10
148.3817958162
 20
222.6754543505
 30
0.0
 10
148.3452035602
 20
222.6495653777
 30
0.0
  0
SPLINE
  5
327
100
AcDbEntity
  8
_1
100
AcDbSpline
 62
7
  6
CONTINUOUS
 70
0
 71
3
 72
19
 73
15
 74
0
 42
0.0000001
 43
0.0000001
 44
0.0000000001
 40
0.0
 40
0.0
 40
0.0
 40
0.0
 40
0.0587606991
 40
0.1122172294
 40
0.1612987715
 40
0.2076818897
 40
0.2536098635
 40
0.3014528226
 40
0.3531302101
 40
0.4098238551
 40
0.5390555014
 40
0.6865972191
 40
0.8438688157
 40
1.0
 40
1.0
 40
1.0
 40
1.0
 10
148.3452035602
 20
222.6495653777
 30
0.0
 10
148.2711594151
 20
222.5971792428
 30
0.0
 10
148.136760557
 20
222.486364319
 30
0.0
 10
147.9766357658
 20
222.2934560873
 30
0.0
 10
147.8724800774
 20
222.085888566
 30
0.0
 10
147.8289135996
 20
221.8690909626
 30
0.0
 10
147.8488671737
 20
221.6506636807
 30
0.0
 10
147.9309368387
 20
221.4389280996
 30
0.0
 10
148.0707254218
 20
221.24001565
 30
0.0
 10
148.3391595869
 20
220.9871920229
 30
0.0
 10
148.7978471365
 20
220.7368248341
 30
0.0
 10
149.4484394511
 20
220.5596366959
 30
0.0
 10
150.1620484338
 20
220.5075042377
 30
0.0
 10
150.6463537443
 20
220.5613722719
 30
0.0
 10
150.8818420609
 20
220.6126251206
 30
0.0
  0
SPLINE
  5
328
100
AcDbEntity
  8
_1
100
AcDbSpline
 62
7
  6
CONTINUOUS
 70
0
 71
3
 72
10
 73
6
 74
0
 42
0.0000001
 43
0.0000001
 44
0.0000000001
 40
0.0
 40
0.0
 40
0.0
 40
0.0
 40
0.524661056
 40
0.7718799342
 40
1.0
 40
1.0
 40
1.0
 40
1.0
 10
150.2335767409
 20
223.1244451198
 30
0.0
 10
149.9197287633
 20
223.1361782076
 30
0.0
 10
149.4526301416
 20
223.0986522954
 30
0.0
 10
148.8758094138
 20
222.9338627867
 30
0.0
 10
148.6154805154
 20
222.8149717216
 30
0.0
 10
148.4972203319
 20
222.7466945803
 30
0.0
  0
SPLINE
  5
329
100
AcDbEntity
  8
_1
100
AcDbSpline
 62
7
  6
CONTINUOUS
 70
0
 71
3
 72
14
 73
10
 74
0
 42
0.0000001
 43
0.0000001
 44
0.0000000001
 40
0.0
 40
0.0
 40
0.0
 40
0.0
 40
0.2970894303
 40
0.436099496
 40
0.5667832732
 40
0.6883059824
 40
0.8004574683
 40
0.9038290132
 40
1.0
 40
1.0
 40
1.0
 40
1.0
 10
161.4280986182
 20
213.0504017793
 30
0.0
 10
160.3535965156
 20
213.1994000861
 30
0.0
 10
158.7876916348
 20
213.5478119127
 30
0.0
 10
156.8537827774
 20
214.2927973836
 30
0.0
 10
155.5818840794
 20
214.9504316303
 30
0.0
 10
154.4823329971
 20
215.7064150974
 30
0.0
 10
153.5767828943
 20
216.5475708312
 30
0.0
 10
152.8843764319
 20
217.4586435964
 30
0.0
 10
152.5671936893
 20
218.1222372914
 30
0.0
 10
152.4543029453
 20
218.4547521524
 30
0.0
  0
SPLINE
  5
32A
100
AcDbEntity
  8
_1
100
AcDbSpline
 62
7
  6
CONTINUOUS
 70
0
 71
3
 72
10
 73
6
 74
0
 42
0.0000001
 43
0.0000001
 44
0.0000000001
 40
0.0
 40
0.0
 40
0.0
 40
0.0
 40
0.279512783
 40
0.5433315388
 40
1.0
 40
1.0
 40
1.0
 40
1.0
 10
159.3268882446
 20
240.6304131755
 30
0.0
 10
160.4418426915
 20
239.9498999036
 30
0.0
 10
162.6018996342
 20
238.6151726456
 30
0.0
 10
166.5559747873
 20
236.1243032418
 30
0.0
 10
169.3842620983
 20
234.2970431851
 30
0.0
 10
171.1652773113
 20
233.1212812433
 30
0.0
  0
SPLINE
  5
32B
100
AcDbEntity
  8
_1
100
AcDbSpline
 62
7
  6
CONTINUOUS
 70
0
 71
3
 72
17
 73
13
 74
0
 42
0.0000001
 43
0.0000001
 44
0.0000000001
 40
0.0
 40
0.0
 40
0.0
 40
0.0
 40
0.1286919658
 40
0.2702764102
 40
0.4174294026
 40
0.5617750105
 40
0.6954477686
 40
0.8127152973
 40
0.8646787954
 40
0.9125127165
 40
0.9571419224
 40
1.0
 40
1.0
 40
1.0
 40
1.0
 10
166.1749634605
 20
210.4994196745
 30
0.0
 10
165.9713927542
 20
210.381888774
 30
0.0
 10
165.5104895359
 20
210.191719917
 30
0.0
 10
164.7593130545
 20
210.0414444067
 30
0.0
 10
163.9648096647
 20
210.0194269043
 30
0.0
 10
163.1918045056
 20
210.1280475257
 30
0.0
 10
162.5029795281
 20
210.3581403551
 30
0.0
 10
162.0238878578
 20
210.6497408543
 30
0.0
 10
161.7427440609
 20
210.9319172234
 30
0.0
 10
161.5933953078
 20
211.1515995851
 30
0.0
 10
161.5013474006
 20
211.3833157368
 30
0.0
 10
161.4804338996
 20
211.543799146
 30
0.0
 10
161.4804318901
 20
211.6220817485
 30
0.0
  0
SPLINE
  5
32C
100
AcDbEntity
  8
_1
100
AcDbSpline
 62
7
  6
CONTINUOUS
 70
0
 71
3
 72
11
 73
7
 74
0
 42
0.0000001
 43
0.0000001
 44
0.0000000001
 40
0.0
 40
0.0
 40
0.0
 40
0.0
 40
0.2897730581
 40
0.5490651526
 40
0.7822233799
 40
1.0
 40
1.0
 40
1.0
 40
1.0
 10
166.1749634605
 20
212.1324245088
 30
0.0
 10
166.295659314
 20
212.2021078763
 30
0.0
 10
166.5146058556
 20
212.3528448255
 30
0.0
 10
166.7761907008
 20
212.6278700962
 30
0.0
 10
166.9417195612
 20
212.9320079059
 30
0.0
 10
166.9803968584
 20
213.1503461617
 30
0.0
 10
166.9803960986
 20
213.2550865837
 30
0.0
  0
SPLINE
  5
32D
100
AcDbEntity
  8
_1
100
AcDbSpline
 62
7
  6
CONTINUOUS
 70
0
 71
3
 72
9
 73
5
 74
0
 42
0.0000001
 43
0.0000001
 44
0.0000000001
 40
0.0
 40
0.0
 40
0.0
 40
0.0
 40
0.2547173421
 40
1.0
 40
1.0
 40
1.0
 40
1.0
 10
162.6394148348
 20
214.5818794899
 30
0.0
 10
162.6261474956
 20
214.5742196338
 30
0.0
 10
162.5743923367
 20
214.5435790939
 30
0.0
 10
162.5239903191
 20
214.5106392601
 30
0.0
 10
162.4873980631
 20
214.4847502873
 30
0.0
  0
SPLINE
  5
32E
100
AcDbEntity
  8
_1
100
AcDbSpline
 62
7
  6
CONTINUOUS
 70
0
 71
3
 72
20
 73
16
 74
0
 42
0.0000001
 43
0.0000001
 44
0.0000000001
 40
0.0
 40
0.0
 40
0.0
 40
0.0
 40
0.0572379679
 40
0.1085485191
 40
0.1554140495
 40
0.2003943014
 40
0.2466360268
 40
0.2968901578
 40
0.3528307778
 40
0.4149890941
 40
0.4829851444
 40
0.5557904543
 40
0.7094515673
 40
0.8621352933
 40
1.0
 40
1.0
 40
1.0
 40
1.0
 10
162.4873980631
 20
214.4847502873
 30
0.0
 10
162.4020141187
 20
214.4243412593
 30
0.0
 10
162.2491917089
 20
214.2954812989
 30
0.0
 10
162.0767516456
 20
214.066176594
 30
0.0
 10
161.9821109157
 20
213.8178488709
 30
0.0
 10
161.9731689207
 20
213.5608536866
 30
0.0
 10
162.05091235
 20
213.3097334935
 30
0.0
 10
162.2082635475
 20
213.0760022227
 30
0.0
 10
162.4365327831
 20
212.8664304553
 30
0.0
 10
162.7269999344
 20
212.6865228918
 30
0.0
 10
163.0697323609
 20
212.5415082791
 30
0.0
 10
163.5897255869
 20
212.3985878537
 30
0.0
 10
164.2861564738
 20
212.335119336
 30
0.0
 10
165.0972559688
 20
212.4323896705
 30
0.0
 10
165.6032349679
 20
212.6188342425
 30
0.0
 10
165.821408598
 20
212.7447960946
 30
0.0
  0
SPLINE
  5
32F
100
AcDbEntity
  8
_1
100
AcDbSpline
 62
7
  6
CONTINUOUS
 70
0
 71
3
 72
16
 73
12
 74
0
 42
0.0000001
 43
0.0000001
 44
0.0000000001
 40
0.0
 40
0.0
 40
0.0
 40
0.0
 40
0.138664565
 40
0.2606524889
 40
0.3696257383
 40
0.4736564769
 40
0.5828685297
 40
0.7052222606
 40
0.7727254709
 40
0.8445126698
 40
1.0
 40
1.0
 40
1.0
 40
1.0
 10
165.821408598
 20
212.7447960946
 30
0.0
 10
165.9337216
 20
212.8096396495
 30
0.0
 10
166.1348329206
 20
212.9512162472
 30
0.0
 10
166.3637179251
 20
213.2161195423
 30
0.0
 10
166.4855829157
 20
213.5122804729
 30
0.0
 10
166.4840355389
 20
213.821869949
 30
0.0
 10
166.3593659262
 20
214.1173419541
 30
0.0
 10
166.1725829514
 20
214.3305809481
 30
0.0
 10
165.9812107379
 20
214.4836081661
 30
0.0
 10
165.7480526059
 20
214.6315977102
 30
0.0
 10
165.5525002182
 20
214.7185333186
 30
0.0
 10
165.4155775883
 20
214.7675187442
 30
0.0
  0
SPLINE
  5
330
100
AcDbEntity
  8
_1
100
AcDbSpline
 62
7
  6
CONTINUOUS
 70
0
 71
3
 72
9
 73
5
 74
0
 42
0.0000001
 43
0.0000001
 44
0.0000000001
 40
0.0
 40
0.0
 40
0.0
 40
0.0
 40
0.2600582178
 40
1.0
 40
1.0
 40
1.0
 40
1.0
 10
163.0732873414
 20
214.7774076321
 30
0.0
 10
163.0342734379
 20
214.763896456
 30
0.0
 10
162.8854072694
 20
214.708738771
 30
0.0
 10
162.7411507147
 20
214.640616377
 30
0.0
 10
162.6394148348
 20
214.5818794899
 30
0.0
  0
SPLINE
  5
331
100
AcDbEntity
  8
_1
100
AcDbSpline
 62
7
  6
CONTINUOUS
 70
0
 71
3
 72
12
 73
8
 74
0
 42
0.0000001
 43
0.0000001
 44
0.0000000001
 40
0.0
 40
0.0
 40
0.0
 40
0.0
 40
0.2105930593
 40
0.3261888478
 40
0.4487372438
 40
0.7132822001
 40
1.0
 40
1.0
 40
1.0
 40
1.0
 10
151.1171928764
 20
245.3701757785
 30
0.0
 10
151.4872155281
 20
244.7988864395
 30
0.0
 10
152.2014350187
 20
244.0018167654
 30
0.0
 10
153.3378445092
 20
243.0991220675
 30
0.0
 10
154.7095888686
 20
242.2229563467
 30
0.0
 10
156.7010678832
 20
241.3151070208
 30
0.0
 10
158.4210631428
 20
240.8259694918
 30
0.0
 10
159.3268882446
 20
240.6304131755
 30
0.0
  0
SPLINE
  5
332
100
AcDbEntity
  8
_1
100
AcDbSpline
 62
7
  6
CONTINUOUS
 70
0
 71
3
 72
16
 73
12
 74
0
 42
0.0000001
 43
0.0000001
 44
0.0000000001
 40
0.0
 40
0.0
 40
0.0
 40
0.0
 40
0.0431158193
 40
0.0875377974
 40
0.1841206166
 40
0.2954645682
 40
0.4220834372
 40
0.5611506574
 40
0.7078020559
 40
0.8561310207
 40
1.0
 40
1.0
 40
1.0
 40
1.0
 10
147.3382328312
 20
221.4199016741
 30
0.0
 10
147.3382333135
 20
221.3534126968
 30
0.0
 10
147.3531428875
 20
221.2179845823
 30
0.0
 10
147.4437394757
 20
220.9469523723
 30
0.0
 10
147.6754046284
 20
220.6235720085
 30
0.0
 10
148.0886175355
 20
220.306453348
 30
0.0
 10
148.6186813478
 20
220.0586955737
 30
0.0
 10
149.2355227996
 20
219.8934177498
 30
0.0
 10
149.9032118336
 20
219.8195489372
 30
0.0
 10
150.5817441683
 20
219.8415047619
 30
0.0
 10
151.0273438076
 20
219.9214461422
 30
0.0
 10
151.2417078313
 20
219.9786317067
 30
0.0
  0
SPLINE
  5
333
100
AcDbEntity
  8
_1
100
AcDbSpline
 62
7
  6
CONTINUOUS
 70
0
 71
3
 72
17
 73
13
 74
0
 42
0.0000001
 43
0.0000001
 44
0.0000000001
 40
0.0
 40
0.0
 40
0.0
 40
0.0
 40
0.1286919658
 40
0.2702764102
 40
0.4174294026
 40
0.5617750105
 40
0.6954477686
 40
0.8127152973
 40
0.8646787954
 40
0.9125127165
 40
0.9571419224
 40
1.0
 40
1.0
 40
1.0
 40
1.0
 10
152.0327689576
 20
218.6642347649
 30
0.0
 10
151.8291982513
 20
218.5467038644
 30
0.0
 10
151.368295033
 20
218.3565350074
 30
0.0
 10
150.6171185515
 20
218.2062594971
 30
0.0
 10
149.8226151618
 20
218.1842419947
 30
0.0
 10
149.0496100027
 20
218.2928626161
 30
0.0
 10
148.3607850252
 20
218.5229554455
 30
0.0
 10
147.8816933549
 20
218.8145559447
 30
0.0
 10
147.600549558
 20
219.0967323138
 30
0.0
 10
147.4512008049
 20
219.3164146755
 30
0.0
 10
147.3591528977
 20
219.5481308272
 30
0.0
 10
147.3382393966
 20
219.7086142364
 30
0.0
 10
147.3382373871
 20
219.7868968389
 30
0.0
  0
SPLINE
  5
334
100
AcDbEntity
  8
_1
100
AcDbSpline
 62
7
  6
CONTINUOUS
 70
0
 71
3
 72
9
 73
5
 74
0
 42
0.0000001
 43
0.0000001
 44
0.0000000001
 40
0.0
 40
0.0
 40
0.0
 40
0.0
 40
0.4864517219
 40
1.0
 40
1.0
 40
1.0
 40
1.0
 10
171.173884952
 20
214.1364265466
 30
0.0
 10
170.5302370404
 20
213.8727860293
 30
0.0
 10
169.1667269314
 20
213.4266787252
 30
0.0
 10
167.760035082
 20
213.1512743482
 30
0.0
 10
167.0327018103
 20
213.0504139576
 30
0.0
  0
SPLINE
  5
335
100
AcDbEntity
  8
_1
100
AcDbSpline
 62
7
  6
CONTINUOUS
 70
0
 71
3
 72
17
 73
13
 74
0
 42
0.0000001
 43
0.0000001
 44
0.0000000001
 40
0.0
 40
0.0
 40
0.0
 40
0.0
 40
0.0428588705
 40
0.0874882997
 40
0.1353223328
 40
0.1872856408
 40
0.3045518466
 40
0.4382226938
 40
0.5825694618
 40
0.7297273024
 40
0.8713109533
 40
1.0
 40
1.0
 40
1.0
 40
1.0
 10
161.4804273341
 20
213.2550865837
 30
0.0
 10
161.480427902
 20
213.1768023922
 30
0.0
 10
161.5013425833
 20
213.0163168113
 30
0.0
 10
161.5933889521
 20
212.7845973879
 30
0.0
 10
161.7427409076
 20
212.5649160095
 30
0.0
 10
162.0238832899
 20
212.2827412489
 30
0.0
 10
162.5029706072
 20
211.9911437882
 30
0.0
 10
163.1917924265
 20
211.7610496164
 30
0.0
 10
163.9648066165
 20
211.6524288432
 30
0.0
 10
164.7593213086
 20
211.6744461051
 30
0.0
 10
165.5105000227
 20
211.8247285855
 30
0.0
 10
165.9713970061
 20
212.014896063
 30
0.0
 10
166.1749634605
 20
212.1324245088
 30
0.0
  0
SPLINE
  5
336
100
AcDbEntity
  8
_1
100
AcDbSpline
 62
7
  6
CONTINUOUS
 70
0
 71
3
 72
11
 73
7
 74
0
 42
0.0000001
 43
0.0000001
 44
0.0000000001
 40
0.0
 40
0.0
 40
0.0
 40
0.0
 40
0.2177713965
 40
0.4509290994
 40
0.7102263779
 40
1.0
 40
1.0
 40
1.0
 40
1.0
 10
166.9803915427
 20
211.6220817504
 30
0.0
 10
166.9803942313
 20
211.5173441018
 30
0.0
 10
166.9417115522
 20
211.2990103908
 30
0.0
 10
166.7761940742
 20
210.9948687714
 30
0.0
 10
166.5146055815
 20
210.7198432143
 30
0.0
 10
166.2956592481
 20
210.569103004
 30
0.0
 10
166.1749634605
 20
210.4994196745
 30
0.0
  0
SPLINE
  5
337
100
AcDbEntity
  8
_1
100
AcDbSpline
 62
7
  6
CONTINUOUS
 70
0
 71
3
 72
14
 73
10
 74
0
 42
0.0000001
 43
0.0000001
 44
0.0000000001
 40
0.0
 40
0.0
 40
0.0
 40
0.0
 40
0.4174172381
 40
0.5810647461
 40
0.7161349754
 40
0.8238534004
 40
0.9056237913
 40
0.9632781065
 40
1.0
 40
1.0
 40
1.0
 40
1.0
 10
151.1171928764
 20
245.3701757785
 30
0.0
 10
150.9999687949
 20
245.427504449
 30
0.0
 10
150.8357917475
 20
245.505397785
 30
0.0
 10
150.6301962593
 20
245.5940236213
 30
0.0
 10
150.5120078523
 20
245.6408155633
 30
0.0
 10
150.4161911332
 20
245.6740848319
 30
0.0
 10
150.3413587175
 20
245.6944503849
 30
0.0
 10
150.2871868843
 20
245.7027416404
 30
0.0
 10
150.2565336591
 20
245.7003408159
 30
0.0
 10
150.2461989214
 20
245.6953427356
 30
0.0
  0
SPLINE
  5
338
100
AcDbEntity
  8
_1
100
AcDbSpline
 62
7
  6
CONTINUOUS
 70
0
 71
3
 72
13
 73
9
 74
0
 42
0.0000001
 43
0.0000001
 44
0.0000000001
 40
0.0
 40
0.0
 40
0.0
 40
0.0
 40
0.1142487484
 40
0.2375477548
 40
0.5000005226
 40
0.7624530043
 40
0.8857516767
 40
1.0
 40
1.0
 40
1.0
 40
1.0
 10
162.1091002047
 20
210.3973492878
 30
0.0
 10
162.2543117745
 20
210.3135132456
 30
0.0
 10
162.5718981507
 20
210.1656201336
 30
0.0
 10
163.2757295716
 20
209.9518614933
 30
0.0
 10
164.2304238715
 20
209.848024966
 30
0.0
 10
165.1851172533
 20
209.9518659074
 30
0.0
 10
165.8889460367
 20
210.16562801
 30
0.0
 10
166.2065304669
 20
210.3135227084
 30
0.0
 10
166.3517408918
 20
210.3973594859
 30
0.0
  0
SPLINE
  5
339
100
AcDbEntity
  8
_1
100
AcDbSpline
 62
7
  6
CONTINUOUS
 70
0
 71
3
 72
11
 73
7
 74
0
 42
0.0000001
 43
0.0000001
 44
0.0000000001
 40
0.0
 40
0.0
 40
0.0
 40
0.0
 40
0.2177723091
 40
0.4509273687
 40
0.7102218233
 40
1.0
 40
1.0
 40
1.0
 40
1.0
 10
147.0882392658
 20
219.7868968398
 30
0.0
 10
147.0882392673
 20
219.6726357097
 30
0.0
 10
147.1304369521
 20
219.434451603
 30
0.0
 10
147.311006466
 20
219.1026604101
 30
0.0
 10
147.5963778241
 20
218.8026288314
 30
0.0
 10
147.8352333408
 20
218.6381837315
 30
0.0
 10
147.9669057018
 20
218.5621643782
 30
0.0
  0
SPLINE
  5
33A
100
AcDbEntity
  8
_1
100
AcDbSpline
 62
7
  6
CONTINUOUS
 70
0
 71
3
 72
16
 73
12
 74
0
 42
0.0000001
 43
0.0000001
 44
0.0000000001
 40
0.0
 40
0.0
 40
0.0
 40
0.0
 40
0.1177924577
 40
0.2458368837
 40
0.380459786
 40
0.5172316403
 40
0.6514925293
 40
0.7788527188
 40
0.8388274144
 40
0.8958297154
 40
1.0
 40
1.0
 40
1.0
 40
1.0
 10
194.9896258809
 20
204.9678667134
 30
0.0
 10
194.2013802901
 20
204.5127756259
 30
0.0
 10
192.457522742
 20
203.7300415706
 30
0.0
 10
189.6100733362
 20
202.9614547775
 30
0.0
 10
186.5383493985
 20
202.5753274188
 30
0.0
 10
183.395083088
 20
202.591314787
 30
0.0
 10
180.3361514076
 20
203.0084001353
 30
0.0
 10
177.9347965106
 20
203.686505742
 30
0.0
 10
176.1925313978
 20
204.4204409022
 30
0.0
 10
174.6824639765
 20
205.2220193604
 30
0.0
 10
173.6662911562
 20
205.9657352326
 30
0.0
 10
173.0861853797
 20
206.5237542183
 30
0.0
  0
SPLINE
  5
33B
100
AcDbEntity
  8
_1
100
AcDbSpline
 62
7
  6
CONTINUOUS
 70
0
 71
3
 72
11
 73
7
 74
0
 42
0.0000001
 43
0.0000001
 44
0.0000000001
 40
0.0
 40
0.0
 40
0.0
 40
0.0
 40
0.274201297
 40
0.5287762501
 40
0.7684440553
 40
1.0
 40
1.0
 40
1.0
 40
1.0
 10
173.0861853797
 20
206.5237542183
 30
0.0
 10
172.7742783647
 20
206.8237857698
 30
0.0
 10
172.2137038871
 20
207.4479755624
 30
0.0
 10
171.5724282228
 20
208.4860924126
 30
0.0
 10
171.1791105643
 20
209.5712912031
 30
0.0
 10
171.0900955716
 20
210.3177594607
 30
0.0
 10
171.0900958694
 20
210.6832372763
 30
0.0
  0
SPLINE
  5
33C
100
AcDbEntity
  8
_1
100
AcDbSpline
 62
7
  6
CONTINUOUS
 70
0
 71
3
 72
9
 73
5
 74
0
 42
0.0000001
 43
0.0000001
 44
0.0000000001
 40
0.0
 40
0.0
 40
0.0
 40
0.0
 40
0.5137302264
 40
1.0
 40
1.0
 40
1.0
 40
1.0
 10
168.1276479782
 20
208.3342238154
 30
0.0
 10
168.070874698
 20
208.2438199152
 30
0.0
 10
167.9804195484
 20
208.0537002992
 30
0.0
 10
167.9479761563
 20
207.8448407196
 30
0.0
 10
167.9479761576
 20
207.7437945815
 30
0.0
  0
SPLINE
  5
33D
100
AcDbEntity
  8
_1
100
AcDbSpline
 62
7
  6
CONTINUOUS
 70
0
 71
3
 72
11
 73
7
 74
0
 42
0.0000001
 43
0.0000001
 44
0.0000000001
 40
0.0
 40
0.0
 40
0.0
 40
0.0
 40
0.2897781767
 40
0.5490726313
 40
0.7822276909
 40
1.0
 40
1.0
 40
1.0
 40
1.0
 10
168.8266425936
 20
202.7631510011
 30
0.0
 10
168.6949702327
 20
202.8391703543
 30
0.0
 10
168.4561147159
 20
203.0036154542
 30
0.0
 10
168.1707433578
 20
203.303647033
 30
0.0
 10
167.9901738439
 20
203.6354382259
 30
0.0
 10
167.9479761591
 20
203.8736223325
 30
0.0
 10
167.9479761576
 20
203.9878834627
 30
0.0
  0
SPLINE
  5
33E
100
AcDbEntity
  8
_1
100
AcDbSpline
 62
7
  6
CONTINUOUS
 70
0
 71
3
 72
13
 73
9
 74
0
 42
0.0000001
 43
0.0000001
 44
0.0000000001
 40
0.0
 40
0.0
 40
0.0
 40
0.0
 40
0.1142483233
 40
0.2375469957
 40
0.4999994774
 40
0.7624522452
 40
0.8857512516
 40
1.0
 40
1.0
 40
1.0
 40
1.0
 10
187.2114777836
 20
194.5983461087
 30
0.0
 10
187.0662673587
 20
194.5145093313
 30
0.0
 10
186.7486829285
 20
194.3666146328
 30
0.0
 10
186.0448541452
 20
194.1528525303
 30
0.0
 10
185.0901607633
 20
194.0490115889
 30
0.0
 10
184.1354664634
 20
194.1528481161
 30
0.0
 10
183.4316350425
 20
194.3666067564
 30
0.0
 10
183.1140486663
 20
194.5144998684
 30
0.0
 10
182.9688370966
 20
194.5983359107
 30
0.0
  0
SPLINE
  5
33F
100
AcDbEntity
  8
_1
100
AcDbSpline
 62
7
  6
CONTINUOUS
 70
0
 71
3
 72
22
 73
18
 74
0
 42
0.0000001
 43
0.0000001
 44
0.0000000001
 40
0.0
 40
0.0
 40
0.0
 40
0.0
 40
0.0428209825
 40
0.0874095336
 40
0.1351992501
 40
0.1871156165
 40
0.2435697304
 40
0.3045351824
 40
0.3696416312
 40
0.4382586126
 40
0.5095655772
 40
0.5826108588
 40
0.7296281233
 40
0.8016254721
 40
0.8712367537
 40
0.9375998667
 40
1.0
 40
1.0
 40
1.0
 40
1.0
 10
205.4676128164
 20
249.7709893
 30
0.0
 10
205.7511282462
 20
249.9347008279
 30
0.0
 10
206.3761322608
 20
250.1944301188
 30
0.0
 10
207.4077995062
 20
250.3456302827
 30
0.0
 10
208.5156459889
 20
250.2640724491
 30
0.0
 10
209.6750697466
 20
249.9560221367
 30
0.0
 10
210.8633087329
 20
249.4308737954
 30
0.0
 10
212.0567076168
 20
248.700760382
 30
0.0
 10
213.2310366681
 20
247.7813955057
 30
0.0
 10
214.3618688569
 20
246.6922991888
 30
0.0
 10
215.4255793535
 20
245.4564033524
 30
0.0
 10
216.7258980149
 20
243.6451532991
 30
0.0
 10
217.7949284946
 20
241.6698768883
 30
0.0
 10
218.5862860857
 20
239.6076167295
 30
0.0
 10
219.0187516869
 20
238.0748398312
 30
0.0
 10
219.2846845592
 20
236.5791312802
 30
0.0
 10
219.3493383531
 20
235.5940111609
 30
0.0
 10
219.3493383531
 20
235.1169316599
 30
0.0
  0
SPLINE
  5
340
100
AcDbEntity
  8
_1
100
AcDbSpline
 62
7
  6
CONTINUOUS
 70
0
 71
3
 72
12
 73
8
 74
0
 42
0.0000001
 43
0.0000001
 44
0.0000000001
 40
0.0
 40
0.0
 40
0.0
 40
0.0
 40
0.1182388074
 40
0.2363329245
 40
0.4766788567
 40
0.7291892445
 40
1.0
 40
1.0
 40
1.0
 40
1.0
 10
187.8401486082
 20
201.2119843253
 30
0.0
 10
187.8401486082
 20
201.2930007916
 30
0.0
 10
187.8242768817
 20
201.4553926627
 30
0.0
 10
187.7307486113
 20
201.7700521393
 30
0.0
 10
187.50397355
 20
202.1319998723
 30
0.0
 10
187.1047107904
 20
202.4784890958
 30
0.0
 10
186.7855548727
 20
202.6480890427
 30
0.0
 10
186.6146558147
 20
202.720374595
 30
0.0
  0
SPLINE
  5
341
100
AcDbEntity
  8
_1
100
AcDbSpline
 62
7
  6
CONTINUOUS
 70
0
 71
3
 72
9
 73
5
 74
0
 42
0.0000001
 43
0.0000001
 44
0.0000000001
 40
0.0
 40
0.0
 40
0.0
 40
0.0
 40
0.2552683965
 40
1.0
 40
1.0
 40
1.0
 40
1.0
 10
183.6110752652
 20
202.7391451186
 30
0.0
 10
183.5793334101
 20
202.7262944641
 30
0.0
 10
183.4558097353
 20
202.6739602619
 30
0.0
 10
183.3356744654
 20
202.6134923532
 30
0.0
 10
183.2491528458
 20
202.5635393711
 30
0.0
  0
SPLINE
  5
342
100
AcDbEntity
  8
_1
100
AcDbSpline
 62
7
  6
CONTINUOUS
 70
0
 71
3
 72
11
 73
7
 74
0
 42
0.0000001
 43
0.0000001
 44
0.0000000001
 40
0.0
 40
0.0
 40
0.0
 40
0.0
 40
0.2652883108
 40
0.5168487599
 40
0.7600871689
 40
1.0
 40
1.0
 40
1.0
 40
1.0
 10
183.2491528458
 20
202.5635393711
 30
0.0
 10
183.1187688952
 20
202.4882626114
 30
0.0
 10
182.8764380828
 20
202.3192718607
 30
0.0
 10
182.5810716402
 20
201.999296712
 30
0.0
 10
182.3863254516
 20
201.6242289504
 30
0.0
 10
182.3401486082
 20
201.3481376397
 30
0.0
 10
182.3401486082
 20
201.2119843253
 30
0.0
  0
SPLINE
  5
343
100
AcDbEntity
  8
_1
100
AcDbSpline
 62
7
  6
CONTINUOUS
 70
0
 71
3
 72
14
 73
10
 74
0
 42
0.0000001
 43
0.0000001
 44
0.0000000001
 40
0.0
 40
0.0
 40
0.0
 40
0.0
 40
0.2892799053
 40
0.4225416139
 40
0.5484929597
 40
0.667893569
 40
0.7818667798
 40
0.8919504998
 40
1.0
 40
1.0
 40
1.0
 40
1.0
 10
219.3493383531
 20
235.1169316599
 30
0.0
 10
219.3493383531
 20
234.5340280485
 30
0.0
 10
219.2812832949
 20
233.6784162336
 30
0.0
 10
219.0182560874
 20
232.6030022661
 30
0.0
 10
218.750603655
 20
231.8864155487
 30
0.0
 10
218.4095804276
 20
231.2451135446
 30
0.0
 10
217.9975849462
 20
230.6856432203
 30
0.0
 10
217.5186202571
 20
230.2142124484
 30
0.0
 10
217.1560856693
 20
229.9612839842
 30
0.0
 10
216.9675402115
 20
229.8524113737
 30
0.0
  0
SPLINE
  5
344
100
AcDbEntity
  8
_1
100
AcDbSpline
 62
7
  6
CONTINUOUS
 70
0
 71
3
 72
9
 73
5
 74
0
 42
0.0000001
 43
0.0000001
 44
0.0000000001
 40
0.0
 40
0.0
 40
0.0
 40
0.0
 40
0.5186694468
 40
1.0
 40
1.0
 40
1.0
 40
1.0
 10
171.0932155596
 20
211.1734123817
 30
0.0
 10
170.7382510016
 20
211.1851642714
 30
0.0
 10
170.0490534203
 20
211.1266804122
 30
0.0
 10
169.3923931414
 20
210.8931493356
 30
0.0
 10
169.1069583429
 20
210.7283544615
 30
0.0
  0
SPLINE
  5
345
100
AcDbEntity
  8
_1
100
AcDbSpline
 62
7
  6
CONTINUOUS
 70
0
 71
3
 72
11
 73
7
 74
0
 42
0.0000001
 43
0.0000001
 44
0.0000000001
 40
0.0
 40
0.0
 40
0.0
 40
0.0
 40
0.2652883108
 40
0.5168487599
 40
0.7600871689
 40
1.0
 40
1.0
 40
1.0
 40
1.0
 10
169.1069583429
 20
210.7283544615
 30
0.0
 10
168.9765743922
 20
210.6530777018
 30
0.0
 10
168.7342435799
 20
210.4840869511
 30
0.0
 10
168.4388771373
 20
210.1641118024
 30
0.0
 10
168.2441309486
 20
209.7890440408
 30
0.0
 10
168.1979541053
 20
209.5129527301
 30
0.0
 10
168.1979541053
 20
209.3767994158
 30
0.0
  0
SPLINE
  5
346
100
AcDbEntity
  8
_1
100
AcDbSpline
 62
7
  6
CONTINUOUS
 70
0
 71
3
 72
9
 73
5
 74
0
 42
0.0000001
 43
0.0000001
 44
0.0000000001
 40
0.0
 40
0.0
 40
0.0
 40
0.0
 40
0.48626979
 40
1.0
 40
1.0
 40
1.0
 40
1.0
 10
202.2322033001
 20
207.7438625685
 30
0.0
 10
202.2322032988
 20
207.8449086216
 30
0.0
 10
202.199759975
 20
208.0537680192
 30
0.0
 10
202.1093049613
 20
208.2438874927
 30
0.0
 10
202.0525317718
 20
208.3342913356
 30
0.0
  0
SPLINE
  5
347
100
AcDbEntity
  8
_1
100
AcDbSpline
 62
7
  6
CONTINUOUS
 70
0
 71
3
 72
11
 73
7
 74
0
 42
0.0000001
 43
0.0000001
 44
0.0000000001
 40
0.0
 40
0.0
 40
0.0
 40
0.0
 40
0.2177727701
 40
0.4509280213
 40
0.7102223029
 40
1.0
 40
1.0
 40
1.0
 40
1.0
 10
202.2322033001
 20
203.9879514497
 30
0.0
 10
202.2322033016
 20
203.8736915496
 30
0.0
 10
202.1900065804
 20
203.6355101911
 30
0.0
 10
202.0094409727
 20
203.3037222107
 30
0.0
 10
201.7240754103
 20
203.0036928559
 30
0.0
 10
201.4852244266
 20
202.8392483838
 30
0.0
 10
201.3535545279
 20
202.7632291862
 30
0.0
  0
SPLINE
  5
348
100
AcDbEntity
  8
_1
100
AcDbSpline
 62
7
  6
CONTINUOUS
 70
0
 71
3
 72
9
 73
5
 74
0
 42
0.0000001
 43
0.0000001
 44
0.0000000001
 40
0.0
 40
0.0
 40
0.0
 40
0.0
 40
0.2547179658
 40
1.0
 40
1.0
 40
1.0
 40
1.0
 10
169.3569572237
 20
210.703592322
 30
0.0
 10
169.343688847
 20
210.6959318669
 30
0.0
 10
169.2919297875
 20
210.6652889732
 30
0.0
 10
169.2415240573
 20
210.6323464645
 30
0.0
 10
169.204929235
 20
210.6064553052
 30
0.0
  0
SPLINE
  5
349
100
AcDbEntity
  8
_1
100
AcDbSpline
 62
7
  6
CONTINUOUS
 70
0
 71
3
 72
19
 73
15
 74
0
 42
0.0000001
 43
0.0000001
 44
0.0000000001
 40
0.0
 40
0.0
 40
0.0
 40
0.0
 40
0.0587602322
 40
0.1122165376
 40
0.161297994
 40
0.2076810979
 40
0.2536092251
 40
0.3014523915
 40
0.3531299491
 40
0.4098236905
 40
0.5390553386
 40
0.686597076
 40
0.8438688494
 40
1.0
 40
1.0
 40
1.0
 40
1.0
 10
169.204929235
 20
210.6064553052
 30
0.0
 10
169.1308864258
 20
210.5540693651
 30
0.0
 10
168.9964900616
 20
210.44325454
 30
0.0
 10
168.8363683719
 20
210.2503470837
 30
0.0
 10
168.7322148365
 20
210.0427804032
 30
0.0
 10
168.6886503541
 20
209.8259835281
 30
0.0
 10
168.7086051521
 20
209.6075570137
 30
0.0
 10
168.7906758423
 20
209.3958222615
 30
0.0
 10
168.9304646792
 20
209.1969107077
 30
0.0
 10
169.1988983744
 20
208.9440888594
 30
0.0
 10
169.65758352
 20
208.6937229633
 30
0.0
 10
170.3081725688
 20
208.5165352908
 30
0.0
 10
171.0217778886
 20
208.4644020654
 30
0.0
 10
171.5060809353
 20
208.5182686512
 30
0.0
 10
171.741568105
 20
208.5695204995
 30
0.0
  0
SPLINE
  5
34A
100
AcDbEntity
  8
_1
100
AcDbSpline
 62
7
  6
CONTINUOUS
 70
0
 71
3
 72
10
 73
6
 74
0
 42
0.0000001
 43
0.0000001
 44
0.0000000001
 40
0.0
 40
0.0
 40
0.0
 40
0.0
 40
0.5246615395
 40
0.7718802283
 40
1.0
 40
1.0
 40
1.0
 40
1.0
 10
171.093310506
 20
211.081342965
 30
0.0
 10
170.7794627691
 20
211.0930757034
 30
0.0
 10
170.3123648469
 20
211.0555495319
 30
0.0
 10
169.7355451214
 20
210.8907602257
 30
0.0
 10
169.4752170503
 20
210.7718692572
 30
0.0
 10
169.3569572237
 20
210.703592322
 30
0.0
  0
SPLINE
  5
34B
100
AcDbEntity
  8
_1
100
AcDbSpline
 62
7
  6
CONTINUOUS
 70
0
 71
3
 72
11
 73
7
 74
0
 42
0.0000001
 43
0.0000001
 44
0.0000000001
 40
0.0
 40
0.0
 40
0.0
 40
0.0
 40
0.2177718384
 40
0.4509299156
 40
0.7102268825
 40
1.0
 40
1.0
 40
1.0
 40
1.0
 10
187.840128399
 20
199.578979491
 30
0.0
 10
187.8401310301
 20
199.4742416245
 30
0.0
 10
187.8014486175
 20
199.2559074191
 30
0.0
 10
187.6359303112
 20
198.9517658995
 30
0.0
 10
187.3743421821
 20
198.6767403455
 30
0.0
 10
187.1553959359
 20
198.5260006278
 30
0.0
 10
187.0347003524
 20
198.4563174162
 30
0.0
  0
SPLINE
  5
34C
100
AcDbEntity
  8
_1
100
AcDbSpline
 62
7
  6
CONTINUOUS
 70
0
 71
3
 72
17
 73
13
 74
0
 42
0.0000001
 43
0.0000001
 44
0.0000000001
 40
0.0
 40
0.0
 40
0.0
 40
0.0
 40
0.1286914424
 40
0.270275894
 40
0.4174292768
 40
0.5617752962
 40
0.6954478949
 40
0.8127150858
 40
0.8646785489
 40
0.9125125227
 40
0.9571418263
 40
1.0
 40
1.0
 40
1.0
 40
1.0
 10
187.0347003524
 20
198.4563174162
 30
0.0
 10
186.8311304735
 20
198.3387869934
 30
0.0
 10
186.3702282288
 20
198.1486183909
 30
0.0
 10
185.6190521095
 20
197.9983421641
 30
0.0
 10
184.8245472056
 20
197.9763245415
 30
0.0
 10
184.051540862
 20
198.0849453191
 30
0.0
 10
183.3627161049
 20
198.3150383281
 30
0.0
 10
182.8836253017
 20
198.6066382726
 30
0.0
 10
182.6024817477
 20
198.8888140426
 30
0.0
 10
182.4531326588
 20
199.108496434
 30
0.0
 10
182.3610844108
 20
199.3402129412
 30
0.0
 10
182.3401707839
 20
199.5006967129
 30
0.0
 10
182.3401688174
 20
199.5789794912
 30
0.0
  0
SPLINE
  5
34D
100
AcDbEntity
  8
_1
100
AcDbSpline
 62
7
  6
CONTINUOUS
 70
0
 71
3
 72
11
 73
7
 74
0
 42
0.0000001
 43
0.0000001
 44
0.0000000001
 40
0.0
 40
0.0
 40
0.0
 40
0.0
 40
0.2344594735
 40
0.4940332579
 40
0.756825234
 40
1.0
 40
1.0
 40
1.0
 40
1.0
 10
201.1767770966
 20
206.6212004936
 30
0.0
 10
200.9194260495
 20
206.4726196841
 30
0.0
 10
200.3245472325
 20
206.2496154019
 30
0.0
 10
199.3671079294
 20
206.1241440638
 30
0.0
 10
198.3930672153
 20
206.1960646017
 30
0.0
 10
197.7711991812
 20
206.3828455841
 30
0.0
 10
197.4924366791
 20
206.5143152894
 30
0.0
  0
SPLINE
  5
34E
100
AcDbEntity
  8
_1
100
AcDbSpline
 62
7
  6
CONTINUOUS
 70
0
 71
3
 72
11
 73
7
 74
0
 42
0.0000001
 43
0.0000001
 44
0.0000000001
 40
0.0
 40
0.0
 40
0.0
 40
0.0
 40
0.2897730581
 40
0.5490651526
 40
0.7822233799
 40
1.0
 40
1.0
 40
1.0
 40
1.0
 10
187.0347003524
 20
200.0893222504
 30
0.0
 10
187.1553962058
 20
200.1590056179
 30
0.0
 10
187.3743427474
 20
200.3097425671
 30
0.0
 10
187.6359275926
 20
200.5847678378
 30
0.0
 10
187.8014564531
 20
200.8889056475
 30
0.0
 10
187.8401337503
 20
201.1072439033
 30
0.0
 10
187.8401329905
 20
201.2119843253
 30
0.0
  0
SPLINE
  5
34F
100
AcDbEntity
  8
_1
100
AcDbSpline
 62
7
  6
CONTINUOUS
 70
0
 71
3
 72
9
 73
5
 74
0
 42
0.0000001
 43
0.0000001
 44
0.0000000001
 40
0.0
 40
0.0
 40
0.0
 40
0.0
 40
0.2547179658
 40
1.0
 40
1.0
 40
1.0
 40
1.0
 10
183.4991517266
 20
202.5387772316
 30
0.0
 10
183.4858833499
 20
202.5311167765
 30
0.0
 10
183.4341242904
 20
202.5004738828
 30
0.0
 10
183.3837185602
 20
202.4675313741
 30
0.0
 10
183.3471237379
 20
202.4416402148
 30
0.0
  0
SPLINE
  5
350
100
AcDbEntity
  8
_1
100
AcDbSpline
 62
7
  6
CONTINUOUS
 70
0
 71
3
 72
20
 73
16
 74
0
 42
0.0000001
 43
0.0000001
 44
0.0000000001
 40
0.0
 40
0.0
 40
0.0
 40
0.0
 40
0.0572375079
 40
0.108547865
 40
0.1554133046
 40
0.2003936349
 40
0.2466355862
 40
0.2968899649
 40
0.352830779
 40
0.4149892266
 40
0.4829853739
 40
0.5557907908
 40
0.7094521505
 40
0.8621356929
 40
1.0
 40
1.0
 40
1.0
 40
1.0
 10
183.3471237379
 20
202.4416402148
 30
0.0
 10
183.2617410989
 20
202.3812312451
 30
0.0
 10
183.1089211612
 20
202.2523709539
 30
0.0
 10
182.936484258
 20
202.0230665247
 30
0.0
 10
182.8418459912
 20
201.7747388978
 30
0.0
 10
182.8329069987
 20
201.517743838
 30
0.0
 10
182.9106527713
 20
201.2666240557
 30
0.0
 10
183.068006034
 20
201.0328935528
 30
0.0
 10
183.2962767375
 20
200.8233230195
 30
0.0
 10
183.5867445668
 20
200.6434167407
 30
0.0
 10
183.9294771562
 20
200.4984033344
 30
0.0
 10
184.4494702314
 20
200.3554843219
 30
0.0
 10
185.1458998112
 20
200.2920173068
 30
0.0
 10
185.9569965148
 20
200.3892885506
 30
0.0
 10
186.4629730316
 20
200.5757326607
 30
0.0
 10
186.6811454898
 20
200.7016938362
 30
0.0
  0
SPLINE
  5
351
100
AcDbEntity
  8
_1
100
AcDbSpline
 62
7
  6
CONTINUOUS
 70
0
 71
3
 72
16
 73
12
 74
0
 42
0.0000001
 43
0.0000001
 44
0.0000000001
 40
0.0
 40
0.0
 40
0.0
 40
0.0
 40
0.138664611
 40
0.2606529084
 40
0.369626694
 40
0.473657907
 40
0.5828701485
 40
0.7052235704
 40
0.772726479
 40
0.8445133344
 40
1.0
 40
1.0
 40
1.0
 40
1.0
 10
186.6811454898
 20
200.7016938362
 30
0.0
 10
186.7934572929
 20
200.766536699
 30
0.0
 10
186.9945669564
 20
200.9081115933
 30
0.0
 10
187.2234508069
 20
201.1730117731
 30
0.0
 10
187.3453179152
 20
201.4691692491
 30
0.0
 10
187.343774467
 20
201.7787564147
 30
0.0
 10
187.2191104188
 20
202.0742272881
 30
0.0
 10
187.0323325439
 20
202.2874661338
 30
0.0
 10
186.8409650282
 20
202.440493483
 30
0.0
 10
186.6078121846
 20
202.5884834056
 30
0.0
 10
186.4122637894
 20
202.6754198819
 30
0.0
 10
186.2753437726
 20
202.7244060146
 30
0.0
  0
SPLINE
  5
352
100
AcDbEntity
  8
_1
100
AcDbSpline
 62
7
  6
CONTINUOUS
 70
0
 71
3
 72
9
 73
5
 74
0
 42
0.0000001
 43
0.0000001
 44
0.0000000001
 40
0.0
 40
0.0
 40
0.0
 40
0.0
 40
0.2600606229
 40
1.0
 40
1.0
 40
1.0
 40
1.0
 10
183.9331855263
 20
202.7343612755
 30
0.0
 10
183.8941564939
 20
202.7208474795
 30
0.0
 10
183.745234136
 20
202.6656779841
 30
0.0
 10
183.6009236741
 20
202.5975349421
 30
0.0
 10
183.4991517266
 20
202.5387772316
 30
0.0
  0
SPLINE
  5
353
100
AcDbEntity
  8
_1
100
AcDbSpline
 62
7
  6
CONTINUOUS
 70
0
 71
3
 72
12
 73
8
 74
0
 42
0.0000001
 43
0.0000001
 44
0.0000000001
 40
0.0
 40
0.0
 40
0.0
 40
0.0
 40
0.2105930593
 40
0.3261888478
 40
0.4487372438
 40
0.7132822001
 40
1.0
 40
1.0
 40
1.0
 40
1.0
 10
171.9769297683
 20
233.3270735201
 30
0.0
 10
172.3469524199
 20
232.7557841812
 30
0.0
 10
173.0611719105
 20
231.958714507
 30
0.0
 10
174.197581401
 20
231.0560198091
 30
0.0
 10
175.5693257604
 20
230.1798540884
 30
0.0
 10
177.5608047751
 20
229.2720047625
 30
0.0
 10
179.2808000346
 20
228.7828672334
 30
0.0
 10
180.1866251364
 20
228.5873109171
 30
0.0
  0
SPLINE
  5
354
100
AcDbEntity
  8
_1
100
AcDbSpline
 62
7
  6
CONTINUOUS
 70
0
 71
3
 72
17
 73
13
 74
0
 42
0.0000001
 43
0.0000001
 44
0.0000000001
 40
0.0
 40
0.0
 40
0.0
 40
0.0
 40
0.1286914424
 40
0.270275894
 40
0.4174292768
 40
0.5617752962
 40
0.6954478949
 40
0.8127150858
 40
0.8646785489
 40
0.9125125227
 40
0.9571418263
 40
1.0
 40
1.0
 40
1.0
 40
1.0
 10
172.8925058494
 20
206.6211325066
 30
0.0
 10
172.6889359706
 20
206.5036020838
 30
0.0
 10
172.2280337258
 20
206.3134334814
 30
0.0
 10
171.4768576066
 20
206.1631572545
 30
0.0
 10
170.6823527026
 20
206.1411396319
 30
0.0
 10
169.909346359
 20
206.2497604095
 30
0.0
 10
169.2205216019
 20
206.4798534185
 30
0.0
 10
168.7414307988
 20
206.771453363
 30
0.0
 10
168.4602872447
 20
207.053629133
 30
0.0
 10
168.3109381559
 20
207.2733115244
 30
0.0
 10
168.2188899078
 20
207.5050280316
 30
0.0
 10
168.197976281
 20
207.6655118033
 30
0.0
 10
168.1979743145
 20
207.7437945816
 30
0.0
  0
SPLINE
  5
355
100
AcDbEntity
  8
_1
100
AcDbSpline
 62
7
  6
CONTINUOUS
 70
0
 71
3
 72
10
 73
6
 74
0
 42
0.0000001
 43
0.0000001
 44
0.0000000001
 40
0.0
 40
0.0
 40
0.0
 40
0.0
 40
0.2316290797
 40
0.4771628687
 40
1.0
 40
1.0
 40
1.0
 40
1.0
 10
193.5754064306
 20
202.8449395208
 30
0.0
 10
193.1739747824
 20
202.613174234
 30
0.0
 10
192.3172069519
 20
202.1859877334
 30
0.0
 10
190.4410486566
 20
201.4831359279
 30
0.0
 10
188.9288153469
 20
201.1510275957
 30
0.0
 10
187.8924387022
 20
201.0073116993
 30
0.0
  0
SPLINE
  5
356
100
AcDbEntity
  8
_1
100
AcDbSpline
 62
7
  6
CONTINUOUS
 70
0
 71
3
 72
11
 73
7
 74
0
 42
0.0000001
 43
0.0000001
 44
0.0000000001
 40
0.0
 40
0.0
 40
0.0
 40
0.0
 40
0.2237396927
 40
0.4637615565
 40
0.7223439804
 40
1.0
 40
1.0
 40
1.0
 40
1.0
 10
196.6582497384
 20
205.9020405465
 30
0.0
 10
196.5167576548
 20
205.6057644701
 30
0.0
 10
196.1605942496
 20
205.0204407253
 30
0.0
 10
195.4599821345
 20
204.2194258503
 30
0.0
 10
194.5894481761
 20
203.4792732578
 30
0.0
 10
193.9282675081
 20
203.0486627427
 30
0.0
 10
193.5754064306
 20
202.8449395208
 30
0.0
  0
SPLINE
  5
357
100
AcDbEntity
  8
_1
100
AcDbSpline
 62
7
  6
CONTINUOUS
 70
0
 71
3
 72
11
 73
7
 74
0
 42
0.0000001
 43
0.0000001
 44
0.0000000001
 40
0.0
 40
0.0
 40
0.0
 40
0.0
 40
0.2976699746
 40
0.5686197247
 40
0.8038536187
 40
1.0
 40
1.0
 40
1.0
 40
1.0
 10
180.1866251364
 20
228.5873109171
 30
0.0
 10
181.6762861894
 20
227.6780951909
 30
0.0
 10
184.5095607092
 20
225.9210313829
 30
0.0
 10
188.4866899712
 20
223.3922224915
 30
0.0
 10
191.9373660207
 20
221.1452616211
 30
0.0
 10
194.0399093509
 20
219.7393968088
 30
0.0
 10
194.9896258809
 20
219.0909285153
 30
0.0
  0
SPLINE
  5
358
100
AcDbEntity
  8
_1
100
AcDbSpline
 62
7
  6
CONTINUOUS
 70
0
 71
3
 72
14
 73
10
 74
0
 42
0.0000001
 43
0.0000001
 44
0.0000000001
 40
0.0
 40
0.0
 40
0.0
 40
0.0
 40
0.4174172873
 40
0.5810646274
 40
0.7161347399
 40
0.823853176
 40
0.905623678
 40
0.9632781527
 40
1.0
 40
1.0
 40
1.0
 40
1.0
 10
171.9769297683
 20
233.3270735201
 30
0.0
 10
171.8597056643
 20
233.3844022016
 30
0.0
 10
171.6955284983
 20
233.4622952283
 30
0.0
 10
171.489933178
 20
233.5509212894
 30
0.0
 10
171.3717450122
 20
233.5977136403
 30
0.0
 10
171.2759283208
 20
233.6309830153
 30
0.0
 10
171.2010957583
 20
233.6513484692
 30
0.0
 10
171.1469237426
 20
233.6596391044
 30
0.0
 10
171.1162705271
 20
233.6572380944
 30
0.0
 10
171.1059358137
 20
233.652239995
 30
0.0
  0
SPLINE
  5
359
100
AcDbEntity
  8
_1
100
AcDbSpline
 62
7
  6
CONTINUOUS
 70
0
 71
3
 72
16
 73
12
 74
0
 42
0.0000001
 43
0.0000001
 44
0.0000000001
 40
0.0
 40
0.0
 40
0.0
 40
0.0
 40
0.0431158799
 40
0.0875378877
 40
0.1841206038
 40
0.295464219
 40
0.4220826351
 40
0.5611494716
 40
0.7078007606
 40
0.8561300753
 40
1.0
 40
1.0
 40
1.0
 40
1.0
 10
168.197969723
 20
209.3767994158
 30
0.0
 10
168.1979702053
 20
209.3103113075
 30
0.0
 10
168.2128793773
 20
209.1748850236
 30
0.0
 10
168.3034735174
 20
208.9038564259
 30
0.0
 10
168.5351325221
 20
208.5804797057
 30
0.0
 10
168.9483356073
 20
208.2633629399
 30
0.0
 10
169.4783878409
 20
208.015604742
 30
0.0
 10
170.0952173488
 20
207.8503238056
 30
0.0
 10
170.7628956861
 20
207.7764491334
 30
0.0
 10
171.4414202395
 20
207.7983965796
 30
0.0
 10
171.88701647
 20
207.878330654
 30
0.0
 10
172.1013797715
 20
207.9355121219
 30
0.0
  0
SPLINE
  5
35A
100
AcDbEntity
  8
_1
100
AcDbSpline
 62
7
  6
CONTINUOUS
 70
0
 71
3
 72
13
 73
9
 74
0
 42
0.0000001
 43
0.0000001
 44
0.0000000001
 40
0.0
 40
0.0
 40
0.0
 40
0.0
 40
0.1142487484
 40
0.2375477548
 40
0.5000005226
 40
0.7624530043
 40
0.8857516767
 40
1.0
 40
1.0
 40
1.0
 40
1.0
 10
182.9688370966
 20
198.3542470295
 30
0.0
 10
183.1140486663
 20
198.2704109872
 30
0.0
 10
183.4316350425
 20
198.1225178752
 30
0.0
 10
184.1354664634
 20
197.9087592349
 30
0.0
 10
185.0901607633
 20
197.8049227077
 30
0.0
 10
186.0448541452
 20
197.9087636491
 30
0.0
 10
186.7486829285
 20
198.1225257516
 30
0.0
 10
187.0662673587
 20
198.2704204501
 30
0.0
 10
187.2114777836
 20
198.3542572275
 30
0.0
  0
SPLINE
  5
35B
100
AcDbEntity
  8
_1
100
AcDbSpline
 62
7
  6
CONTINUOUS
 70
0
 71
3
 72
9
 73
5
 74
0
 42
0.0000001
 43
0.0000001
 44
0.0000000001
 40
0.0
 40
0.0
 40
0.0
 40
0.0
 40
0.5245221438
 40
1.0
 40
1.0
 40
1.0
 40
1.0
 10
199.6477055301
 20
207.8074074392
 30
0.0
 10
199.926729682
 20
207.8320483885
 30
0.0
 10
200.4557402269
 20
207.9262762437
 30
0.0
 10
200.956876465
 20
208.1272463968
 30
0.0
 10
201.1767770966
 20
208.2542053278
 30
0.0
  0
SPLINE
  5
35C
100
AcDbEntity
  8
_1
100
AcDbSpline
 62
7
  6
CONTINUOUS
 70
0
 71
3
 72
11
 73
7
 74
0
 42
0.0000001
 43
0.0000001
 44
0.0000000001
 40
0.0
 40
0.0
 40
0.0
 40
0.0
 40
0.2177718384
 40
0.4509299156
 40
0.7102268825
 40
1.0
 40
1.0
 40
1.0
 40
1.0
 10
201.9822051433
 20
207.7438625684
 30
0.0
 10
201.9822077744
 20
207.6391247019
 30
0.0
 10
201.9435253618
 20
207.4207904965
 30
0.0
 10
201.7780070555
 20
207.1166489769
 30
0.0
 10
201.5164189264
 20
206.8416234229
 30
0.0
 10
201.2974726802
 20
206.6908837053
 30
0.0
 10
201.1767770966
 20
206.6212004936
 30
0.0
  0
SPLINE
  5
35D
100
AcDbEntity
  8
_1
100
AcDbSpline
 62
7
  6
CONTINUOUS
 70
0
 71
3
 72
14
 73
10
 74
0
 42
0.0000001
 43
0.0000001
 44
0.0000000001
 40
0.0
 40
0.0
 40
0.0
 40
0.0
 40
0.2970904155
 40
0.4361007306
 40
0.5667845442
 40
0.6883070779
 40
0.8004582187
 40
0.9038293495
 40
1.0
 40
1.0
 40
1.0
 40
1.0
 10
182.2878355101
 20
201.007299521
 30
0.0
 10
181.2133174249
 20
201.156300044
 30
0.0
 10
179.6473900211
 20
201.5047187785
 30
0.0
 10
177.713457275
 20
202.2497221361
 30
0.0
 10
176.4415474702
 20
202.9073721403
 30
0.0
 10
175.3419919716
 20
203.6633736393
 30
0.0
 10
174.4364449002
 20
204.5045490461
 30
0.0
 10
173.7440496761
 20
205.4156424241
 30
0.0
 10
173.426881049
 20
206.0792496857
 30
0.0
 10
173.3139989074
 20
206.4117704563
 30
0.0
  0
SPLINE
  5
35E
100
AcDbEntity
  8
_1
100
AcDbSpline
 62
7
  6
CONTINUOUS
 70
0
 71
3
 72
11
 73
7
 74
0
 42
0.0000001
 43
0.0000001
 44
0.0000000001
 40
0.0
 40
0.0
 40
0.0
 40
0.0
 40
0.2177723091
 40
0.4509273687
 40
0.7102218233
 40
1.0
 40
1.0
 40
1.0
 40
1.0
 10
167.9479761576
 20
207.7437945815
 30
0.0
 10
167.9479761591
 20
207.6295334513
 30
0.0
 10
167.9901738439
 20
207.3913493447
 30
0.0
 10
168.1707433578
 20
207.0595581518
 30
0.0
 10
168.4561147159
 20
206.759526573
 30
0.0
 10
168.6949702327
 20
206.5950814731
 30
0.0
 10
168.8266425936
 20
206.5190621199
 30
0.0
  0
SPLINE
  5
35F
100
AcDbEntity
  8
_1
100
AcDbSpline
 62
7
  6
CONTINUOUS
 70
0
 71
3
 72
17
 73
13
 74
0
 42
0.0000001
 43
0.0000001
 44
0.0000000001
 40
0.0
 40
0.0
 40
0.0
 40
0.0
 40
0.0428588705
 40
0.0874882997
 40
0.1353223328
 40
0.1872856408
 40
0.3045518466
 40
0.4382226938
 40
0.5825694618
 40
0.7297273024
 40
0.8713109533
 40
1.0
 40
1.0
 40
1.0
 40
1.0
 10
182.3401642259
 20
201.2119843254
 30
0.0
 10
182.3401647938
 20
201.1337001338
 30
0.0
 10
182.3610794752
 20
200.973214553
 30
0.0
 10
182.4531258439
 20
200.7414951296
 30
0.0
 10
182.6024777994
 20
200.5218137511
 30
0.0
 10
182.8836201817
 20
200.2396389905
 30
0.0
 10
183.362707499
 20
199.9480415299
 30
0.0
 10
184.0515293184
 20
199.717947358
 30
0.0
 10
184.8245435083
 20
199.6093265848
 30
0.0
 10
185.6190582005
 20
199.6313438468
 30
0.0
 10
186.3702369145
 20
199.7816263271
 30
0.0
 10
186.8311338979
 20
199.9717938047
 30
0.0
 10
187.0347003524
 20
200.0893222504
 30
0.0
  0
SPLINE
  5
360
100
AcDbEntity
  8
_1
100
AcDbSpline
 62
7
  6
CONTINUOUS
 70
0
 71
3
 72
11
 73
7
 74
0
 42
0.0000001
 43
0.0000001
 44
0.0000000001
 40
0.0
 40
0.0
 40
0.0
 40
0.0
 40
0.2875022507
 40
0.5471892705
 40
0.7819963901
 40
1.0
 40
1.0
 40
1.0
 40
1.0
 10
201.1767770966
 20
208.2542053278
 30
0.0
 10
201.2884408486
 20
208.3186740403
 30
0.0
 10
201.4924791285
 20
208.4574468208
 30
0.0
 10
201.7422830542
 20
208.7071851428
 30
0.0
 10
201.9117885712
 20
208.9820271868
 30
0.0
 10
201.966517958
 20
209.1813845457
 30
0.0
 10
201.9769460688
 20
209.2785963181
 30
0.0
  0
SPLINE
  5
361
100
AcDbEntity
  8
_1
100
AcDbSpline
 62
7
  6
CONTINUOUS
 70
0
 71
3
 72
11
 73
7
 74
0
 42
0.0000001
 43
0.0000001
 44
0.0000000001
 40
0.0
 40
0.0
 40
0.0
 40
0.0
 40
0.2897776971
 40
0.5490719787
 40
0.7822272299
 40
1.0
 40
1.0
 40
1.0
 40
1.0
 10
201.3535545279
 20
206.519140305
 30
0.0
 10
201.4852244266
 20
206.5951595026
 30
0.0
 10
201.7240754103
 20
206.7596039747
 30
0.0
 10
202.0094409727
 20
207.0596333295
 30
0.0
 10
202.1900065804
 20
207.3914213099
 30
0.0
 10
202.2322033016
 20
207.6296026684
 30
0.0
 10
202.2322033001
 20
207.7438625685
 30
0.0
  0
SPLINE
  5
362
100
AcDbEntity
  8
_1
100
AcDbSpline
 62
7
  6
CONTINUOUS
 70
0
 71
3
 72
9
 73
5
 74
0
 42
0.0000001
 43
0.0000001
 44
0.0000000001
 40
0.0
 40
0.0
 40
0.0
 40
0.0
 40
0.4794757256
 40
1.0
 40
1.0
 40
1.0
 40
1.0
 10
202.475818019
 20
204.297171367
 30
0.0
 10
202.474916058
 20
204.381041737
 30
0.0
 10
202.4385121812
 20
204.5567864914
 30
0.0
 10
202.3449202771
 20
204.7082407147
 30
0.0
 10
202.287612136
 20
204.7790005317
 30
0.0
  0
SPLINE
  5
363
100
AcDbEntity
  8
_1
100
AcDbSpline
 62
7
  6
CONTINUOUS
 70
0
 71
3
 72
8
 73
4
 74
0
 42
0.0000001
 43
0.0000001
 44
0.0000000001
 40
0.0
 40
0.0
 40
0.0
 40
0.0
 40
1.0
 40
1.0
 40
1.0
 40
1.0
 10
197.898875377
 20
165.5308968466
 30
0.0
 10
197.8838875909
 20
165.5120610292
 30
0.0
 10
197.8670248308
 20
165.4945459922
 30
0.0
 10
197.84858616
 20
165.4790722349
 30
0.0
  0
SPLINE
  5
364
100
AcDbEntity
  8
_1
100
AcDbSpline
 62
7
  6
CONTINUOUS
 70
0
 71
3
 72
9
 73
5
 74
0
 42
0.0000001
 43
0.0000001
 44
0.0000000001
 40
0.0
 40
0.0
 40
0.0
 40
0.0
 40
0.5328772855
 40
1.0
 40
1.0
 40
1.0
 40
1.0
 10
204.2339812837
 20
169.4167487737
 30
0.0
 10
204.2212046784
 20
169.3532500836
 30
0.0
 10
204.1802942444
 20
169.2354912643
 30
0.0
 10
204.0908872875
 20
169.1451674082
 30
0.0
 10
204.0417017296
 20
169.116801605
 30
0.0
  0
SPLINE
  5
365
100
AcDbEntity
  8
_1
100
AcDbSpline
 62
7
  6
CONTINUOUS
 70
0
 71
3
 72
9
 73
5
 74
0
 42
0.0000001
 43
0.0000001
 44
0.0000000001
 40
0.0
 40
0.0
 40
0.0
 40
0.0
 40
0.2586176962
 40
1.0
 40
1.0
 40
1.0
 40
1.0
 10
205.0182461047
 20
176.3041303384
 30
0.0
 10
204.9969599017
 20
175.7065771102
 30
0.0
 10
204.8721579763
 20
173.3979248756
 30
0.0
 10
204.5720995279
 20
171.0971689756
 30
0.0
 10
204.2339812837
 20
169.4167487737
 30
0.0
  0
SPLINE
  5
366
100
AcDbEntity
  8
_1
100
AcDbSpline
 62
7
  6
CONTINUOUS
 70
0
 71
3
 72
10
 73
6
 74
0
 42
0.0000001
 43
0.0000001
 44
0.0000000001
 40
0.0
 40
0.0
 40
0.0
 40
0.0
 40
0.2382017876
 40
0.5020193254
 40
1.0
 40
1.0
 40
1.0
 40
1.0
 10
204.6858600022
 20
205.2483633054
 30
0.0
 10
204.715981362
 20
205.2309731236
 30
0.0
 10
204.7730543903
 20
205.1828713787
 30
0.0
 10
204.859429768
 20
205.0649639469
 30
0.0
 10
204.897454231
 20
204.9535972919
 30
0.0
 10
204.8980013648
 20
204.8808868702
 30
0.0
  0
SPLINE
  5
367
100
AcDbEntity
  8
_1
100
AcDbSpline
 62
7
  6
CONTINUOUS
 70
0
 71
3
 72
9
 73
5
 74
0
 42
0.0000001
 43
0.0000001
 44
0.0000000001
 40
0.0
 40
0.0
 40
0.0
 40
0.0
 40
0.7479066289
 40
1.0
 40
1.0
 40
1.0
 40
1.0
 10
150.3661931891
 20
181.7197383637
 30
0.0
 10
150.344186745
 20
181.7662240755
 30
0.0
 10
150.3077093584
 20
181.8264557444
 30
0.0
 10
150.2569603536
 20
181.8732498867
 30
0.0
 10
150.2434061467
 20
181.8840579019
 30
0.0
  0
SPLINE
  5
368
100
AcDbEntity
  8
_1
100
AcDbSpline
 62
7
  6
CONTINUOUS
 70
0
 71
3
 72
12
 73
8
 74
0
 42
0.0000001
 43
0.0000001
 44
0.0000000001
 40
0.0
 40
0.0
 40
0.0
 40
0.0
 40
0.1333185845
 40
0.2594703226
 40
0.4442687465
 40
0.6290977126
 40
1.0
 40
1.0
 40
1.0
 40
1.0
 10
150.1196372493
 20
182.0132533057
 30
0.0
 10
150.1168508491
 20
182.0310463118
 30
0.0
 10
150.1144759814
 20
182.0662816466
 30
0.0
 10
150.1233003784
 20
182.1261633624
 30
0.0
 10
150.1504663849
 20
182.1880996962
 30
0.0
 10
150.2018480151
 20
182.2739118926
 30
0.0
 10
150.2472515037
 20
182.334061912
 30
0.0
 10
150.2794112649
 20
182.372483767
 30
0.0
  0
SPLINE
  5
369
100
AcDbEntity
  8
_1
100
AcDbSpline
 62
7
  6
CONTINUOUS
 70
0
 71
3
 72
11
 73
7
 74
0
 42
0.0000001
 43
0.0000001
 44
0.0000000001
 40
0.0
 40
0.0
 40
0.0
 40
0.0
 40
0.2900003862
 40
0.5491989466
 40
0.7822116309
 40
1.0
 40
1.0
 40
1.0
 40
1.0
 10
162.6394560503
 20
202.9876677279
 30
0.0
 10
162.4183578794
 20
203.1153159286
 30
0.0
 10
162.0175847394
 20
203.3915272581
 30
0.0
 10
161.5400159338
 20
203.8962715119
 30
0.0
 10
161.2400577312
 20
204.4546207469
 30
0.0
 10
161.1730076624
 20
204.8549834349
 30
0.0
 10
161.1750685957
 20
205.0467015174
 30
0.0
  0
SPLINE
  5
36A
100
AcDbEntity
  8
_1
100
AcDbSpline
 62
7
  6
CONTINUOUS
 70
0
 71
3
 72
11
 73
7
 74
0
 42
0.0000001
 43
0.0000001
 44
0.0000000001
 40
0.0
 40
0.0
 40
0.0
 40
0.0
 40
0.2622163023
 40
0.5231983104
 40
0.7721708653
 40
1.0
 40
1.0
 40
1.0
 40
1.0
 10
167.292100876
 20
202.2151512909
 30
0.0
 10
166.877053558
 20
202.1602247277
 30
0.0
 10
166.0395135727
 20
202.1131526581
 30
0.0
 10
164.8070857753
 20
202.2212228244
 30
0.0
 10
163.657887988
 20
202.4998639002
 30
0.0
 10
162.9544849042
 20
202.8057898489
 30
0.0
 10
162.6394560503
 20
202.9876677279
 30
0.0
  0
SPLINE
  5
36B
100
AcDbEntity
  8
_1
100
AcDbSpline
 62
7
  6
CONTINUOUS
 70
0
 71
3
 72
11
 73
7
 74
0
 42
0.0000001
 43
0.0000001
 44
0.0000000001
 40
0.0
 40
0.0
 40
0.0
 40
0.0
 40
0.2278174169
 40
0.476800511
 40
0.7377975221
 40
1.0
 40
1.0
 40
1.0
 40
1.0
 10
170.0836877714
 20
201.7516414287
 30
0.0
 10
169.8946801687
 20
201.8607625504
 30
0.0
 10
169.4726361973
 20
202.0443062269
 30
0.0
 10
168.7831133102
 20
202.2115337121
 30
0.0
 10
168.0436402378
 20
202.2763362224
 30
0.0
 10
167.5411161535
 20
202.2481054935
 30
0.0
 10
167.292100876
 20
202.2151512909
 30
0.0
  0
SPLINE
  5
36C
100
AcDbEntity
  8
_1
100
AcDbSpline
 62
7
  6
CONTINUOUS
 70
0
 71
3
 72
9
 73
5
 74
0
 42
0.0000001
 43
0.0000001
 44
0.0000000001
 40
0.0
 40
0.0
 40
0.0
 40
0.0
 40
0.2463437212
 40
1.0
 40
1.0
 40
1.0
 40
1.0
 10
126.9325024801
 20
195.8515229021
 30
0.0
 10
126.9082298484
 20
195.8447531649
 30
0.0
 10
126.8095525278
 20
195.8178037305
 30
0.0
 10
126.7105488568
 20
195.7920008164
 30
0.0
 10
126.6355821408
 20
195.7740194138
 30
0.0
  0
SPLINE
  5
36D
100
AcDbEntity
  8
_1
100
AcDbSpline
 62
7
  6
CONTINUOUS
 70
0
 71
3
 72
9
 73
5
 74
0
 42
0.0000001
 43
0.0000001
 44
0.0000000001
 40
0.0
 40
0.0
 40
0.0
 40
0.0
 40
0.4979403984
 40
1.0
 40
1.0
 40
1.0
 40
1.0
 10
126.6355821408
 20
195.7740194138
 30
0.0
 10
126.5918375943
 20
195.7635269133
 30
0.0
 10
126.5036532907
 20
195.7435813706
 30
0.0
 10
126.4141276933
 20
195.7308576561
 30
0.0
 10
126.3691100056
 20
195.7253163681
 30
0.0
  0
SPLINE
  5
36E
100
AcDbEntity
  8
_1
100
AcDbSpline
 62
7
  6
CONTINUOUS
 70
0
 71
3
 72
8
 73
4
 74
0
 42
0.0000001
 43
0.0000001
 44
0.0000000001
 40
0.0
 40
0.0
 40
0.0
 40
0.0
 40
1.0
 40
1.0
 40
1.0
 40
1.0
 10
150.4712186955
 20
138.1255367928
 30
0.0
 10
150.4878021001
 20
138.1393021414
 30
0.0
 10
150.5031263352
 20
138.1547072092
 30
0.0
 10
150.5169583848
 20
138.1712350201
 30
0.0
  0
SPLINE
  5
36F
100
AcDbEntity
  8
_1
100
AcDbSpline
 62
7
  6
CONTINUOUS
 70
0
 71
3
 72
11
 73
7
 74
0
 42
0.0000001
 43
0.0000001
 44
0.0000000001
 40
0.0
 40
0.0
 40
0.0
 40
0.0
 40
0.2856914132
 40
0.5453986492
 40
0.7813513707
 40
1.0
 40
1.0
 40
1.0
 40
1.0
 10
148.6423649236
 20
213.9263691667
 30
0.0
 10
148.4892901913
 20
214.0147366086
 30
0.0
 10
148.1844617205
 20
214.1631662772
 30
0.0
 10
147.7170518418
 20
214.2975809658
 30
0.0
 10
147.2721930184
 20
214.326804213
 30
0.0
 10
146.9920436543
 20
214.2719799176
 30
0.0
 10
146.8645656412
 20
214.2267247596
 30
0.0
  0
SPLINE
  5
370
100
AcDbEntity
  8
_1
100
AcDbSpline
 62
7
  6
CONTINUOUS
 70
0
 71
3
 72
9
 73
5
 74
0
 42
0.0000001
 43
0.0000001
 44
0.0000000001
 40
0.0
 40
0.0
 40
0.0
 40
0.0
 40
0.4696685927
 40
1.0
 40
1.0
 40
1.0
 40
1.0
 10
156.7099320489
 20
141.7949104271
 30
0.0
 10
156.747823327
 20
141.8257674778
 30
0.0
 10
156.8142110736
 20
141.90981032
 30
0.0
 10
156.8471399745
 20
142.0102967956
 30
0.0
 10
156.8580241904
 20
142.0643904643
 30
0.0
  0
SPLINE
  5
371
100
AcDbEntity
  8
_1
100
AcDbSpline
 62
7
  6
CONTINUOUS
 70
0
 71
3
 72
9
 73
5
 74
0
 42
0.0000001
 43
0.0000001
 44
0.0000000001
 40
0.0
 40
0.0
 40
0.0
 40
0.0
 40
0.2435328487
 40
1.0
 40
1.0
 40
1.0
 40
1.0
 10
157.6336416953
 20
161.786517364
 30
0.0
 10
157.6098918875
 20
162.4028047472
 30
0.0
 10
157.4700231347
 20
164.9316955078
 30
0.0
 10
157.1667653948
 20
167.4508313131
 30
0.0
 10
156.8580608942
 20
169.3415418363
 30
0.0
  0
SPLINE
  5
372
100
AcDbEntity
  8
_1
100
AcDbSpline
 62
7
  6
CONTINUOUS
 70
0
 71
3
 72
9
 73
5
 74
0
 42
0.0000001
 43
0.0000001
 44
0.0000000001
 40
0.0
 40
0.0
 40
0.0
 40
0.0
 40
0.2418356969
 40
1.0
 40
1.0
 40
1.0
 40
1.0
 10
156.8580241904
 20
142.0643904643
 30
0.0
 10
156.964482081
 20
142.5934775309
 30
0.0
 10
157.3569511016
 20
144.7907756815
 30
0.0
 10
157.5644293642
 20
147.0197299926
 30
0.0
 10
157.6330853271
 20
148.7102887971
 30
0.0
  0
SPLINE
  5
373
100
AcDbEntity
  8
_1
100
AcDbSpline
 62
7
  6
CONTINUOUS
 70
0
 71
3
 72
11
 73
7
 74
0
 42
0.0000001
 43
0.0000001
 44
0.0000000001
 40
0.0
 40
0.0
 40
0.0
 40
0.0
 40
0.2178337101
 40
0.4519884996
 40
0.7116465568
 40
1.0
 40
1.0
 40
1.0
 40
1.0
 10
161.3749616196
 20
206.1275169801
 30
0.0
 10
161.3676781228
 20
206.2367717075
 30
0.0
 10
161.3141062341
 20
206.4621554718
 30
0.0
 10
161.1303668316
 20
206.7739337119
 30
0.0
 10
160.8528019887
 20
207.0567025373
 30
0.0
 10
160.6240298625
 20
207.2130539152
 30
0.0
 10
160.4985031084
 20
207.285525181
 30
0.0
  0
SPLINE
  5
374
100
AcDbEntity
  8
_1
100
AcDbSpline
 62
7
  6
CONTINUOUS
 70
0
 71
3
 72
11
 73
7
 74
0
 42
0.0000001
 43
0.0000001
 44
0.0000000001
 40
0.0
 40
0.0
 40
0.0
 40
0.0
 40
0.2177883691
 40
0.4508010534
 40
0.7099996138
 40
1.0
 40
1.0
 40
1.0
 40
1.0
 10
161.1759412662
 20
205.12834865
 30
0.0
 10
161.1738806926
 20
204.9366640295
 30
0.0
 10
161.2409190586
 20
204.5363712198
 30
0.0
 10
161.5408249074
 20
203.9781194376
 30
0.0
 10
162.0183103594
 20
203.4734632805
 30
0.0
 10
162.4190135495
 20
203.1973001602
 30
0.0
 10
162.6400731305
 20
203.0696742388
 30
0.0
  0
SPLINE
  5
375
100
AcDbEntity
  8
_1
100
AcDbSpline
 62
7
  6
CONTINUOUS
 70
0
 71
3
 72
9
 73
5
 74
0
 42
0.0000001
 43
0.0000001
 44
0.0000000001
 40
0.0
 40
0.0
 40
0.0
 40
0.0
 40
0.2561435295
 40
1.0
 40
1.0
 40
1.0
 40
1.0
 10
126.2453357298
 20
195.7390491842
 30
0.0
 10
126.2375092552
 20
195.7388801903
 30
0.0
 10
126.2069810477
 20
195.7373752012
 30
0.0
 10
126.1766031662
 20
195.7323897376
 30
0.0
 10
126.1546157262
 20
195.7266121248
 30
0.0
  0
SPLINE
  5
376
100
AcDbEntity
  8
_1
100
AcDbSpline
 62
7
  6
CONTINUOUS
 70
0
 71
3
 72
9
 73
5
 74
0
 42
0.0000001
 43
0.0000001
 44
0.0000000001
 40
0.0
 40
0.0
 40
0.0
 40
0.0
 40
0.2601804394
 40
1.0
 40
1.0
 40
1.0
 40
1.0
 10
126.3691015166
 20
195.7253541901
 30
0.0
 10
126.3585687427
 20
195.727814835
 30
0.0
 10
126.3178406662
 20
195.7361440968
 30
0.0
 10
126.276071295
 20
195.7397481525
 30
0.0
 10
126.245322164
 20
195.7390872216
 30
0.0
  0
SPLINE
  5
377
100
AcDbEntity
  8
_1
100
AcDbSpline
 62
7
  6
CONTINUOUS
 70
0
 71
3
 72
9
 73
5
 74
0
 42
0.0000001
 43
0.0000001
 44
0.0000000001
 40
0.0
 40
0.0
 40
0.0
 40
0.0
 40
0.2612333556
 40
1.0
 40
1.0
 40
1.0
 40
1.0
 10
150.1196431556
 20
182.0132727984
 30
0.0
 10
150.1035037676
 20
182.0281402617
 30
0.0
 10
150.0403399949
 20
182.0835051378
 30
0.0
 10
149.9715707604
 20
182.1326971905
 30
0.0
 10
149.9178280589
 20
182.1637248518
 30
0.0
  0
SPLINE
  5
378
100
AcDbEntity
  8
_1
100
AcDbSpline
 62
7
  6
CONTINUOUS
 70
0
 71
3
 72
9
 73
5
 74
0
 42
0.0000001
 43
0.0000001
 44
0.0000000001
 40
0.0
 40
0.0
 40
0.0
 40
0.0
 40
0.2546222419
 40
1.0
 40
1.0
 40
1.0
 40
1.0
 10
150.2434252261
 20
181.8840893663
 30
0.0
 10
150.2335854884
 20
181.8956625592
 30
0.0
 10
150.1942845773
 20
181.9405504852
 30
0.0
 10
150.1523548041
 20
181.9831544331
 30
0.0
 10
150.1196457383
 20
182.0132813257
 30
0.0
  0
SPLINE
  5
379
100
AcDbEntity
  8
_1
100
AcDbSpline
 62
7
  6
CONTINUOUS
 70
0
 71
3
 72
9
 73
5
 74
0
 42
0.0000001
 43
0.0000001
 44
0.0000000001
 40
0.0
 40
0.0
 40
0.0
 40
0.0
 40
0.2452153803
 40
1.0
 40
1.0
 40
1.0
 40
1.0
 10
150.5961907293
 20
181.1861362151
 30
0.0
 10
150.5930925947
 20
181.2000840663
 30
0.0
 10
150.5795530874
 20
181.2567606024
 30
0.0
 10
150.5625176963
 20
181.3125907159
 30
0.0
 10
150.5479318398
 20
181.3540800103
 30
0.0
  0
SPLINE
  5
37A
100
AcDbEntity
  8
_1
100
AcDbSpline
 62
7
  6
CONTINUOUS
 70
0
 71
3
 72
9
 73
5
 74
0
 42
0.0000001
 43
0.0000001
 44
0.0000000001
 40
0.0
 40
0.0
 40
0.0
 40
0.0
 40
0.2390817464
 40
1.0
 40
1.0
 40
1.0
 40
1.0
 10
150.6249113006
 20
180.9461222112
 30
0.0
 10
150.624768897
 20
180.9654063078
 30
0.0
 10
150.6217119938
 20
181.0460413501
 30
0.0
 10
150.6094994984
 20
181.1262199243
 30
0.0
 10
150.5961907293
 20
181.1861362151
 30
0.0
  0
SPLINE
  5
37B
100
AcDbEntity
  8
_1
100
AcDbSpline
 62
7
  6
CONTINUOUS
 70
0
 71
3
 72
9
 73
5
 74
0
 42
0.0000001
 43
0.0000001
 44
0.0000000001
 40
0.0
 40
0.0
 40
0.0
 40
0.0
 40
0.255362613
 40
1.0
 40
1.0
 40
1.0
 40
1.0
 10
150.9889518062
 20
175.7171148976
 30
0.0
 10
150.9641775712
 20
175.7919237721
 30
0.0
 10
150.8717441725
 20
176.0863626923
 30
0.0
 10
150.7977233413
 20
176.3866629023
 30
0.0
 10
150.7545275891
 20
176.6123600774
 30
0.0
  0
SPLINE
  5
37C
100
AcDbEntity
  8
_1
100
AcDbSpline
 62
7
  6
CONTINUOUS
 70
0
 71
3
 72
9
 73
5
 74
0
 42
0.0000001
 43
0.0000001
 44
0.0000000001
 40
0.0
 40
0.0
 40
0.0
 40
0.0
 40
0.2582046885
 40
1.0
 40
1.0
 40
1.0
 40
1.0
 10
150.7263954805
 20
176.7699559295
 30
0.0
 10
150.7143551276
 20
176.8426996886
 30
0.0
 10
150.6727150524
 20
177.1252062455
 30
0.0
 10
150.6514858534
 20
177.4109214047
 30
0.0
 10
150.6499390432
 20
177.6227443749
 30
0.0
  0
SPLINE
  5
37D
100
AcDbEntity
  8
_1
100
AcDbSpline
 62
7
  6
CONTINUOUS
 70
0
 71
3
 72
9
 73
5
 74
0
 42
0.0000001
 43
0.0000001
 44
0.0000000001
 40
0.0
 40
0.0
 40
0.0
 40
0.0
 40
0.2530966036
 40
1.0
 40
1.0
 40
1.0
 40
1.0
 10
151.4199239203
 20
174.6695762862
 30
0.0
 10
151.3776190252
 20
174.7553127203
 30
0.0
 10
151.2161995619
 20
175.0968485034
 30
0.0
 10
151.0776493745
 20
175.4492816919
 30
0.0
 10
150.9889518063
 20
175.7171148975
 30
0.0
  0
SPLINE
  5
37E
100
AcDbEntity
  8
_1
100
AcDbSpline
 62
7
  6
CONTINUOUS
 70
0
 71
3
 72
9
 73
5
 74
0
 42
0.0000001
 43
0.0000001
 44
0.0000000001
 40
0.0
 40
0.0
 40
0.0
 40
0.0
 40
0.2391938373
 40
1.0
 40
1.0
 40
1.0
 40
1.0
 10
154.1853313754
 20
171.5349169939
 30
0.0
 10
154.1044029991
 20
171.5816122878
 30
0.0
 10
153.7719575825
 20
171.7869922039
 30
0.0
 10
153.4629174011
 20
172.0292619824
 30
0.0
 10
153.2416344462
 20
172.2276379493
 30
0.0
  0
SPLINE
  5
37F
100
AcDbEntity
  8
_1
100
AcDbSpline
 62
7
  6
CONTINUOUS
 70
0
 71
3
 72
9
 73
5
 74
0
 42
0.0000001
 43
0.0000001
 44
0.0000000001
 40
0.0
 40
0.0
 40
0.0
 40
0.0
 40
0.2418141757
 40
1.0
 40
1.0
 40
1.0
 40
1.0
 10
153.2416344462
 20
172.2276379493
 30
0.0
 10
153.132688548
 20
172.3253058782
 30
0.0
 10
152.6956364295
 20
172.7441236628
 30
0.0
 10
152.3112016028
 20
173.2167975628
 30
0.0
 10
152.050886008
 20
173.5945479276
 30
0.0
  0
LINE
  5
380
100
AcDbEntity
  8
_1
100
AcDbLine
 62
7
  6
CONTINUOUS
 10
151.9757398824
 20
173.7054635039
 11
151.9666095969
 21
173.7192010182
  0
SPLINE
  5
381
100
AcDbEntity
  8
_1
100
AcDbSpline
 62
7
  6
CONTINUOUS
 70
0
 71
3
 72
15
 73
11
 74
0
 42
0.0000001
 43
0.0000001
 44
0.0000000001
 40
0.0
 40
0.0
 40
0.0
 40
0.0
 40
0.1140671226
 40
0.2370678258
 40
0.3665618164
 40
0.4994550629
 40
0.6324242298
 40
0.7621391498
 40
0.8854886617
 40
1.0
 40
1.0
 40
1.0
 40
1.0
 10
181.5862725035
 20
194.9066255414
 30
0.0
 10
181.7788063148
 20
194.7954582952
 30
0.0
 10
182.1588956272
 20
194.528898211
 30
0.0
 10
182.6828262083
 20
194.0404578392
 30
0.0
 10
183.1654495522
 20
193.4625262672
 30
0.0
 10
183.590204541
 20
192.8176625858
 30
0.0
 10
183.9399451588
 20
192.1287435724
 30
0.0
 10
184.2032918219
 20
191.4220182286
 30
0.0
 10
184.36883886
 20
190.7230999023
 30
0.0
 10
184.4129030354
 20
190.2594267437
 30
0.0
 10
184.4145918103
 20
190.0362445385
 30
0.0
  0
SPLINE
  5
382
100
AcDbEntity
  8
_1
100
AcDbSpline
 62
7
  6
CONTINUOUS
 70
0
 71
3
 72
9
 73
5
 74
0
 42
0.0000001
 43
0.0000001
 44
0.0000000001
 40
0.0
 40
0.0
 40
0.0
 40
0.0
 40
0.5224366977
 40
1.0
 40
1.0
 40
1.0
 40
1.0
 10
183.1527488471
 20
193.7789651663
 30
0.0
 10
182.9490447435
 20
194.0315053084
 30
0.0
 10
182.522406234
 20
194.4868316441
 30
0.0
 10
182.0201203365
 20
194.8602806032
 30
0.0
 10
181.7632723406
 20
195.008582682
 30
0.0
  0
SPLINE
  5
383
100
AcDbEntity
  8
_1
100
AcDbSpline
 62
7
  6
CONTINUOUS
 70
0
 71
3
 72
9
 73
5
 74
0
 42
0.0000001
 43
0.0000001
 44
0.0000000001
 40
0.0
 40
0.0
 40
0.0
 40
0.0
 40
0.4639909793
 40
1.0
 40
1.0
 40
1.0
 40
1.0
 10
147.4230373666
 20
214.4070570502
 30
0.0
 10
147.6485428127
 20
214.4247717398
 30
0.0
 10
148.1434295931
 20
214.3620313828
 30
0.0
 10
148.5926106898
 20
214.1592273818
 30
0.0
 10
148.8189181919
 20
214.0285841282
 30
0.0
  0
SPLINE
  5
384
100
AcDbEntity
  8
_1
100
AcDbSpline
 62
7
  6
CONTINUOUS
 70
0
 71
3
 72
9
 73
5
 74
0
 42
0.0000001
 43
0.0000001
 44
0.0000000001
 40
0.0
 40
0.0
 40
0.0
 40
0.0
 40
0.2556845549
 40
1.0
 40
1.0
 40
1.0
 40
1.0
 10
202.2711772878
 20
203.7812987473
 30
0.0
 10
202.2789365984
 20
203.7904226669
 30
0.0
 10
202.3086924499
 20
203.8266031918
 30
0.0
 10
202.3360155615
 20
203.8648036226
 30
0.0
 10
202.3546493785
 20
203.8942730384
 30
0.0
  0
SPLINE
  5
385
100
AcDbEntity
  8
_1
100
AcDbSpline
 62
7
  6
CONTINUOUS
 70
0
 71
3
 72
9
 73
5
 74
0
 42
0.0000001
 43
0.0000001
 44
0.0000000001
 40
0.0
 40
0.0
 40
0.0
 40
0.0
 40
0.5138528618
 40
1.0
 40
1.0
 40
1.0
 40
1.0
 10
202.3546493785
 20
203.8942730384
 30
0.0
 10
202.3935710287
 20
203.9558276997
 30
0.0
 10
202.4553561503
 20
204.0855543628
 30
0.0
 10
202.4765589531
 20
204.2282743647
 30
0.0
 10
202.475818019
 20
204.297171367
 30
0.0
  0
SPLINE
  5
386
100
AcDbEntity
  8
_1
100
AcDbSpline
 62
7
  6
CONTINUOUS
 70
0
 71
3
 72
11
 73
7
 74
0
 42
0.0000001
 43
0.0000001
 44
0.0000000001
 40
0.0
 40
0.0
 40
0.0
 40
0.0
 40
0.2622024779
 40
0.523199489
 40
0.7721825831
 40
1.0
 40
1.0
 40
1.0
 40
1.0
 10
167.2919058958
 20
202.2972926349
 30
0.0
 10
167.5409936108
 20
202.3302564237
 30
0.0
 10
168.0436638772
 20
202.3584953648
 30
0.0
 10
168.783352059
 20
202.2936740037
 30
0.0
 10
169.4730755253
 20
202.1263978727
 30
0.0
 10
169.8952422674
 20
201.9428008042
 30
0.0
 10
170.0843048516
 20
201.8336479397
 30
0.0
  0
SPLINE
  5
387
100
AcDbEntity
  8
_1
100
AcDbSpline
 62
7
  6
CONTINUOUS
 70
0
 71
3
 72
11
 73
7
 74
0
 42
0.0000001
 43
0.0000001
 44
0.0000000001
 40
0.0
 40
0.0
 40
0.0
 40
0.0
 40
0.2278291347
 40
0.4768016896
 40
0.7377836977
 40
1.0
 40
1.0
 40
1.0
 40
1.0
 10
162.6400731305
 20
203.0696742388
 30
0.0
 10
162.955047
 20
202.8878281044
 30
0.0
 10
163.6583273137
 20
202.5819555512
 30
0.0
 10
164.8073245231
 20
202.3033631087
 30
0.0
 10
166.0395372159
 20
202.1953118046
 30
0.0
 10
166.8769310191
 20
202.2423756584
 30
0.0
 10
167.2919058958
 20
202.2972926349
 30
0.0
  0
SPLINE
  5
388
100
AcDbEntity
  8
_1
100
AcDbSpline
 62
7
  6
CONTINUOUS
 70
0
 71
3
 72
13
 73
9
 74
0
 42
0.0000001
 43
0.0000001
 44
0.0000000001
 40
0.0
 40
0.0
 40
0.0
 40
0.0
 40
0.2531415944
 40
0.3794362688
 40
0.5048975152
 40
0.629413125
 40
0.7532326189
 40
1.0
 40
1.0
 40
1.0
 40
1.0
 10
156.166791211
 20
170.3909414132
 30
0.0
 10
158.5250370482
 20
171.8027678591
 30
0.0
 10
162.0780734945
 20
173.8890377791
 30
0.0
 10
166.8556470293
 20
176.5776610172
 30
0.0
 10
170.4272365491
 20
178.5613097035
 30
0.0
 10
173.9704254879
 20
180.540746824
 30
0.0
 10
178.6484096341
 20
183.1893823806
 30
0.0
 10
182.128478874
 20
185.2094459752
 30
0.0
 10
184.44074134
 20
186.5630909358
 30
0.0
  0
SPLINE
  5
389
100
AcDbEntity
  8
_1
100
AcDbSpline
 62
7
  6
CONTINUOUS
 70
0
 71
3
 72
11
 73
7
 74
0
 42
0.0000001
 43
0.0000001
 44
0.0000000001
 40
0.0
 40
0.0
 40
0.0
 40
0.0
 40
0.2899165831
 40
0.5492110408
 40
0.7821518887
 40
1.0
 40
1.0
 40
1.0
 40
1.0
 10
160.4991201885
 20
207.367531692
 30
0.0
 10
160.6317774742
 20
207.290943705
 30
0.0
 10
160.8722836382
 20
207.1251337625
 30
0.0
 10
161.1589283519
 20
206.8222623637
 30
0.0
 10
161.3389590882
 20
206.4871274614
 30
0.0
 10
161.3792614274
 20
206.2468459261
 30
0.0
 10
161.3779794922
 20
206.1317521542
 30
0.0
  0
LINE
  5
38A
100
AcDbEntity
  8
_1
100
AcDbLine
 62
7
  6
CONTINUOUS
 10
151.4313854579
 20
174.6472753049
 11
151.4387236928
 21
174.632536387
  0
SPLINE
  5
38B
100
AcDbEntity
  8
_1
100
AcDbSpline
 62
7
  6
CONTINUOUS
 70
0
 71
3
 72
13
 73
9
 74
0
 42
0.0000001
 43
0.0000001
 44
0.0000000001
 40
0.0
 40
0.0
 40
0.0
 40
0.0
 40
0.1454546553
 40
0.2909275359
 40
0.5642747568
 40
0.6882321378
 40
0.8025097461
 40
1.0
 40
1.0
 40
1.0
 40
1.0
 10
183.1527488471
 20
193.7790388902
 30
0.0
 10
183.2747827174
 20
193.6277486098
 30
0.0
 10
183.5327184132
 20
193.3363511395
 30
0.0
 10
184.0590704437
 20
192.7962867621
 30
0.0
 10
184.5847272616
 20
192.2962928562
 30
0.0
 10
185.0825054959
 20
191.8277207499
 30
0.0
 10
185.5053083958
 20
191.4274226901
 30
0.0
 10
185.800852982
 20
191.1334282467
 30
0.0
 10
185.9810684511
 20
190.940631584
 30
0.0
  0
SPLINE
  5
38C
100
AcDbEntity
  8
_1
100
AcDbSpline
 62
7
  6
CONTINUOUS
 70
0
 71
3
 72
9
 73
5
 74
0
 42
0.0000001
 43
0.0000001
 44
0.0000000001
 40
0.0
 40
0.0
 40
0.0
 40
0.0
 40
0.4559641848
 40
1.0
 40
1.0
 40
1.0
 40
1.0
 10
202.4226664943
 20
203.941715724
 30
0.0
 10
202.3672759429
 20
203.8069955049
 30
0.0
 10
202.2142663341
 20
203.5243193842
 30
0.0
 10
202.0138775659
 20
203.272722479
 30
0.0
 10
201.8927935342
 20
203.1480449345
 30
0.0
  0
SPLINE
  5
38D
100
AcDbEntity
  8
_1
100
AcDbSpline
 62
7
  6
CONTINUOUS
 70
0
 71
3
 72
9
 73
5
 74
0
 42
0.0000001
 43
0.0000001
 44
0.0000000001
 40
0.0
 40
0.0
 40
0.0
 40
0.0
 40
0.4455083118
 40
1.0
 40
1.0
 40
1.0
 40
1.0
 10
126.2453412434
 20
195.7390337267
 30
0.0
 10
126.2269740716
 20
195.7425212877
 30
0.0
 10
126.1839971683
 20
195.7381908779
 30
0.0
 10
126.1441075319
 20
195.7252614751
 30
0.0
 10
126.1225540691
 20
195.7164932161
 30
0.0
  0
SPLINE
  5
38E
100
AcDbEntity
  8
_1
100
AcDbSpline
 62
7
  6
CONTINUOUS
 70
0
 71
3
 72
9
 73
5
 74
0
 42
0.0000001
 43
0.0000001
 44
0.0000000001
 40
0.0
 40
0.0
 40
0.0
 40
0.0
 40
0.2322921705
 40
1.0
 40
1.0
 40
1.0
 40
1.0
 10
156.1934163178
 20
170.3749817963
 30
0.0
 10
156.2305104577
 20
170.3519321349
 30
0.0
 10
156.3836483406
 20
170.2422491358
 30
0.0
 10
156.5108046518
 20
170.0986669869
 30
0.0
 10
156.5926548703
 20
169.9797861741
 30
0.0
  0
SPLINE
  5
38F
100
AcDbEntity
  8
_1
100
AcDbSpline
 62
7
  6
CONTINUOUS
 70
0
 71
3
 72
9
 73
5
 74
0
 42
0.0000001
 43
0.0000001
 44
0.0000000001
 40
0.0
 40
0.0
 40
0.0
 40
0.0
 40
0.2555652109
 40
1.0
 40
1.0
 40
1.0
 40
1.0
 10
156.6385551409
 20
169.9094985141
 30
0.0
 10
156.661228668
 20
169.872860693
 30
0.0
 10
156.7445238209
 20
169.7262678914
 30
0.0
 10
156.8066047253
 20
169.5672053648
 30
0.0
 10
156.8367032067
 20
169.4453623416
 30
0.0
  0
SPLINE
  5
390
100
AcDbEntity
  8
_1
100
AcDbSpline
 62
7
  6
CONTINUOUS
 70
0
 71
3
 72
9
 73
5
 74
0
 42
0.0000001
 43
0.0000001
 44
0.0000000001
 40
0.0
 40
0.0
 40
0.0
 40
0.0
 40
0.2540130299
 40
1.0
 40
1.0
 40
1.0
 40
1.0
 10
156.8367032067
 20
169.4453623416
 30
0.0
 10
156.8388559043
 20
169.4366479091
 30
0.0
 10
156.8470023642
 20
169.4022610147
 30
0.0
 10
156.8538198207
 20
169.3675561297
 30
0.0
 10
156.8580693182
 20
169.3415389976
 30
0.0
  0
SPLINE
  5
391
100
AcDbEntity
  8
_1
100
AcDbSpline
 62
7
  6
CONTINUOUS
 70
0
 71
3
 72
11
 73
7
 74
0
 42
0.0000001
 43
0.0000001
 44
0.0000000001
 40
0.0
 40
0.0
 40
0.0
 40
0.0
 40
0.2494855951
 40
0.4996083612
 40
0.7500796582
 40
1.0
 40
1.0
 40
1.0
 40
1.0
 10
184.44074134
 20
186.5630909358
 30
0.0
 10
182.1278270797
 20
185.1618310874
 30
0.0
 10
177.5029917773
 20
182.3442862263
 30
0.0
 10
170.5970993913
 20
178.0530491529
 30
0.0
 10
163.7295039124
 20
173.6921923791
 30
0.0
 10
159.1507686216
 20
170.7845309356
 30
0.0
 10
156.8580464709
 20
169.3416047063
 30
0.0
  0
SPLINE
  5
392
100
AcDbEntity
  8
_1
100
AcDbSpline
 62
7
  6
CONTINUOUS
 70
0
 71
3
 72
11
 73
7
 74
0
 42
0.0000001
 43
0.0000001
 44
0.0000000001
 40
0.0
 40
0.0
 40
0.0
 40
0.0
 40
0.2895416688
 40
0.549118971
 40
0.7822562702
 40
1.0
 40
1.0
 40
1.0
 40
1.0
 10
36.4214122758
 20
113.541060931
 30
0.0
 10
36.3556327063
 20
113.5030833055
 30
0.0
 10
36.2362645377
 20
113.4207748741
 30
0.0
 10
36.0934766083
 20
113.2708712789
 30
0.0
 10
36.0031366306
 20
113.1049120814
 30
0.0
 10
35.9821607752
 20
112.9858206064
 30
0.0
 10
35.9821607929
 20
112.9286997998
 30
0.0
  0
SPLINE
  5
393
100
AcDbEntity
  8
_1
100
AcDbSpline
 62
7
  6
CONTINUOUS
 70
0
 71
3
 72
11
 73
7
 74
0
 42
0.0000001
 43
0.0000001
 44
0.0000000001
 40
0.0
 40
0.0
 40
0.0
 40
0.0
 40
0.2372531816
 40
0.5000006935
 40
0.7627478297
 40
1.0
 40
1.0
 40
1.0
 40
1.0
 10
44.9066671542
 20
117.2152634148
 30
0.0
 10
44.7560749238
 20
117.3022059127
 30
0.0
 10
44.4058970546
 20
117.4290955628
 30
0.0
 10
43.8460050075
 20
117.4897593733
 30
0.0
 10
43.2861139985
 20
117.4290928875
 30
0.0
 10
42.9359377722
 20
117.302201529
 30
0.0
 10
42.7853468107
 20
117.2152583158
 30
0.0
  0
SPLINE
  5
394
100
AcDbEntity
  8
_1
100
AcDbSpline
 62
7
  6
CONTINUOUS
 70
0
 71
3
 72
17
 73
13
 74
0
 42
0.0000001
 43
0.0000001
 44
0.0000000001
 40
0.0
 40
0.0
 40
0.0
 40
0.0
 40
0.1286930371
 40
0.2702795962
 40
0.4174375935
 40
0.5617786795
 40
0.6954478243
 40
0.81271112
 40
0.8646738576
 40
0.9125098523
 40
0.9571380034
 40
1.0
 40
1.0
 40
1.0
 40
1.0
 10
30.4110119956
 20
107.8663765706
 30
0.0
 10
30.4110119956
 20
107.4817265367
 30
0.0
 10
30.5186069586
 20
106.6729640613
 30
0.0
 10
30.9202749651
 20
105.4854817354
 30
0.0
 10
31.5391437794
 20
104.3415597275
 30
0.0
 10
32.3255432926
 20
103.3350083436
 30
0.0
 10
33.2151618276
 20
102.5471339139
 30
0.0
 10
34.0203709338
 20
102.1068039659
 30
0.0
 10
34.6502640902
 20
101.939283835
 30
0.0
 10
35.0837841949
 20
101.9073115706
 30
0.0
 10
35.4874504635
 20
101.9665762731
 30
0.0
 10
35.7320473407
 20
102.0681210594
 30
0.0
 10
35.8429852986
 20
102.1321909314
 30
0.0
  0
SPLINE
  5
395
100
AcDbEntity
  8
_1
100
AcDbSpline
 62
7
  6
CONTINUOUS
 70
0
 71
3
 72
16
 73
12
 74
0
 42
0.0000001
 43
0.0000001
 44
0.0000000001
 40
0.0
 40
0.0
 40
0.0
 40
0.0
 40
0.0428765743
 40
0.0875234667
 40
0.186928609
 40
0.3042403422
 40
0.4379658104
 40
0.582370771
 40
0.729593422
 40
0.8712541043
 40
1.0
 40
1.0
 40
1.0
 40
1.0
 10
30.610047753
 20
143.8554694768
 30
0.0
 10
30.6778263703
 20
143.8946375604
 30
0.0
 10
30.8272848651
 20
143.956724871
 30
0.0
 10
31.1678972365
 20
144.0066796126
 30
0.0
 10
31.6487734048
 20
143.9127799892
 30
0.0
 10
32.21524112
 20
143.6020757589
 30
0.0
 10
32.7597518441
 20
143.1204585877
 30
0.0
 10
33.2400720509
 20
142.505390165
 30
0.0
 10
33.6183762002
 20
141.8063016227
 30
0.0
 10
33.863799746
 20
141.0805936731
 30
0.0
 10
33.9295686739
 20
140.5863347976
 30
0.0
 10
33.9295686739
 20
140.3512765371
 30
0.0
  0
SPLINE
  5
396
100
AcDbEntity
  8
_1
100
AcDbSpline
 62
7
  6
CONTINUOUS
 70
0
 71
3
 72
9
 73
5
 74
0
 42
0.0000001
 43
0.0000001
 44
0.0000000001
 40
0.0
 40
0.0
 40
0.0
 40
0.0
 40
0.4767431953
 40
1.0
 40
1.0
 40
1.0
 40
1.0
 10
32.1786803257
 20
121.5425030353
 30
0.0
 10
32.1786803257
 20
119.9369140376
 30
0.0
 10
32.6006242867
 20
116.5659666258
 30
0.0
 10
33.633150712
 20
113.342248868
 30
0.0
 10
34.3015410695
 20
111.7116845458
 30
0.0
  0
SPLINE
  5
397
100
AcDbEntity
  8
_1
100
AcDbSpline
 62
7
  6
CONTINUOUS
 70
0
 71
3
 72
15
 73
11
 74
0
 42
0.0000001
 43
0.0000001
 44
0.0000000001
 40
0.0
 40
0.0
 40
0.0
 40
0.0
 40
0.1571043587
 40
0.3074168646
 40
0.4486400356
 40
0.5791313757
 40
0.6981744551
 40
0.8063065147
 40
0.9056465752
 40
1.0
 40
1.0
 40
1.0
 40
1.0
 10
38.842426727
 20
103.8352804274
 30
0.0
 10
39.5030321596
 20
102.9785837263
 30
0.0
 10
40.8792823982
 20
101.3643830537
 30
0.0
 10
43.1267945331
 20
99.2358065738
 30
0.0
 10
45.4642845167
 20
97.4960623093
 30
0.0
 10
47.8297143881
 20
96.1931248503
 30
0.0
 10
50.1624953781
 20
95.3639444088
 30
0.0
 10
52.4051499899
 20
95.0374864041
 30
0.0
 10
54.4965689431
 20
95.2357083309
 30
0.0
 10
55.7581246169
 20
95.7323568993
 30
0.0
 10
56.3207963893
 20
96.0572122457
 30
0.0
  0
SPLINE
  5
398
100
AcDbEntity
  8
_1
100
AcDbSpline
 62
7
  6
CONTINUOUS
 70
0
 71
3
 72
12
 73
8
 74
0
 42
0.0000001
 43
0.0000001
 44
0.0000000001
 40
0.0
 40
0.0
 40
0.0
 40
0.0
 40
0.2895861511
 40
0.5486319619
 40
0.7816377718
 40
0.8918381774
 40
1.0
 40
1.0
 40
1.0
 40
1.0
 10
58.6952950187
 20
106.2334747408
 30
0.0
 10
58.6952950187
 20
105.3464550809
 30
0.0
 10
58.5609252848
 20
103.6599357384
 30
0.0
 10
57.878935619
 20
101.3441145491
 30
0.0
 10
56.8990310777
 20
99.7462470048
 30
0.0
 10
55.9093667743
 20
98.7729392277
 30
0.0
 10
55.3577464607
 20
98.3878895182
 30
0.0
 10
55.0708108998
 20
98.2222642583
 30
0.0
  0
SPLINE
  5
399
100
AcDbEntity
  8
_1
100
AcDbSpline
 62
7
  6
CONTINUOUS
 70
0
 71
3
 72
11
 73
7
 74
0
 42
0.0000001
 43
0.0000001
 44
0.0000000001
 40
0.0
 40
0.0
 40
0.0
 40
0.0
 40
0.2897768139
 40
0.5490678485
 40
0.7822253266
 40
1.0
 40
1.0
 40
1.0
 40
1.0
 10
63.5060724965
 20
82.6351804502
 30
0.0
 10
63.7255246979
 20
82.5084825289
 30
0.0
 10
64.1619255048
 20
82.3007708061
 30
0.0
 10
64.8327926311
 20
82.1389188775
 30
0.0
 10
65.4621662962
 20
82.1547856724
 30
0.0
 10
65.8411188832
 20
82.2923743764
 30
0.0
 10
66.0060433871
 20
82.3875901079
 30
0.0
  0
SPLINE
  5
39A
100
AcDbEntity
  8
_1
100
AcDbSpline
 62
7
  6
CONTINUOUS
 70
0
 71
3
 72
11
 73
7
 74
0
 42
0.0000001
 43
0.0000001
 44
0.0000000001
 40
0.0
 40
0.0
 40
0.0
 40
0.0
 40
0.2377690515
 40
0.5005496911
 40
0.7630314763
 40
1.0
 40
1.0
 40
1.0
 40
1.0
 10
28.4286785068
 20
106.9335510618
 30
0.0
 10
28.4330284239
 20
106.3554761817
 30
0.0
 10
28.6555420458
 20
105.1392378113
 30
0.0
 10
29.4149364354
 20
103.4317084127
 30
0.0
 10
30.5202426975
 20
101.927271498
 30
0.0
 10
31.4651335581
 20
101.1336066811
 30
0.0
 10
31.9640925097
 20
100.845539113
 30
0.0
  0
SPLINE
  5
39B
100
AcDbEntity
  8
_1
100
AcDbSpline
 62
7
  6
CONTINUOUS
 70
0
 71
3
 72
11
 73
7
 74
0
 42
0.0000001
 43
0.0000001
 44
0.0000000001
 40
0.0
 40
0.0
 40
0.0
 40
0.0
 40
0.2896413964
 40
0.5491107671
 40
0.7822355978
 40
1.0
 40
1.0
 40
1.0
 40
1.0
 10
65.4296998206
 20
122.1650787668
 30
0.0
 10
65.4296998206
 20
122.0257714231
 30
0.0
 10
65.4085250528
 20
121.7607758815
 30
0.0
 10
65.3012712725
 20
121.3966805243
 30
0.0
 10
65.120602679
 20
121.1011653646
 30
0.0
 10
64.9508012738
 20
120.9586146946
 30
0.0
 10
64.8601172531
 20
120.906209977
 30
0.0
  0
SPLINE
  5
39C
100
AcDbEntity
  8
_1
100
AcDbSpline
 62
7
  6
CONTINUOUS
 70
0
 71
3
 72
11
 73
7
 74
0
 42
0.0000001
 43
0.0000001
 44
0.0000000001
 40
0.0
 40
0.0
 40
0.0
 40
0.0
 40
0.2896413964
 40
0.5491107671
 40
0.7822355978
 40
1.0
 40
1.0
 40
1.0
 40
1.0
 10
33.9295686739
 20
140.3512765371
 30
0.0
 10
33.9295686739
 20
140.2119691934
 30
0.0
 10
33.9083939061
 20
139.9469736518
 30
0.0
 10
33.8011401258
 20
139.5828782946
 30
0.0
 10
33.6204715322
 20
139.287363135
 30
0.0
 10
33.450670127
 20
139.144812465
 30
0.0
 10
33.3599861064
 20
139.0924077473
 30
0.0
  0
SPLINE
  5
39D
100
AcDbEntity
  8
_1
100
AcDbSpline
 62
7
  6
CONTINUOUS
 70
0
 71
3
 72
11
 73
7
 74
0
 42
0.0000001
 43
0.0000001
 44
0.0000000001
 40
0.0
 40
0.0
 40
0.0
 40
0.0
 40
0.2896413964
 40
0.5491107671
 40
0.7822355978
 40
1.0
 40
1.0
 40
1.0
 40
1.0
 10
65.4296998206
 20
85.7917518184
 30
0.0
 10
65.4296998206
 20
85.6524444746
 30
0.0
 10
65.4085250528
 20
85.3874489331
 30
0.0
 10
65.3012712725
 20
85.0233535759
 30
0.0
 10
65.120602679
 20
84.7278384162
 30
0.0
 10
64.9508012738
 20
84.5852877462
 30
0.0
 10
64.8601172531
 20
84.5328830286
 30
0.0
  0
SPLINE
  5
39E
100
AcDbEntity
  8
_1
100
AcDbSpline
 62
7
  6
CONTINUOUS
 70
0
 71
3
 72
16
 73
12
 74
0
 42
0.0000001
 43
0.0000001
 44
0.0000000001
 40
0.0
 40
0.0
 40
0.0
 40
0.0
 40
0.0428765743
 40
0.0875234667
 40
0.186928609
 40
0.3042403422
 40
0.4379658104
 40
0.582370771
 40
0.729593422
 40
0.8712541043
 40
1.0
 40
1.0
 40
1.0
 40
1.0
 10
62.1101788998
 20
125.6692717065
 30
0.0
 10
62.1779575171
 20
125.7084397901
 30
0.0
 10
62.3274160119
 20
125.7705271007
 30
0.0
 10
62.6680283833
 20
125.8204818423
 30
0.0
 10
63.1489045515
 20
125.7265822189
 30
0.0
 10
63.7153722667
 20
125.4158779885
 30
0.0
 10
64.2598829908
 20
124.9342608174
 30
0.0
 10
64.7402031977
 20
124.3191923947
 30
0.0
 10
65.1185073469
 20
123.6201038524
 30
0.0
 10
65.3639308928
 20
122.8943959028
 30
0.0
 10
65.4296998206
 20
122.4001370273
 30
0.0
 10
65.4296998206
 20
122.1650787668
 30
0.0
  0
SPLINE
  5
39F
100
AcDbEntity
  8
_1
100
AcDbSpline
 62
7
  6
CONTINUOUS
 70
0
 71
3
 72
16
 73
12
 74
0
 42
0.0000001
 43
0.0000001
 44
0.0000000001
 40
0.0
 40
0.0
 40
0.0
 40
0.0
 40
0.0428765743
 40
0.0875234667
 40
0.186928609
 40
0.3042403422
 40
0.4379658104
 40
0.582370771
 40
0.729593422
 40
0.8712541043
 40
1.0
 40
1.0
 40
1.0
 40
1.0
 10
62.1101788998
 20
89.295944758
 30
0.0
 10
62.1779575171
 20
89.3351128416
 30
0.0
 10
62.3274160119
 20
89.3972001522
 30
0.0
 10
62.6680283833
 20
89.4471548938
 30
0.0
 10
63.1489045515
 20
89.3532552705
 30
0.0
 10
63.7153722667
 20
89.0425510401
 30
0.0
 10
64.2598829908
 20
88.5609338689
 30
0.0
 10
64.7402031977
 20
87.9458654462
 30
0.0
 10
65.1185073469
 20
87.2467769039
 30
0.0
 10
65.3639308928
 20
86.5210689543
 30
0.0
 10
65.4296998206
 20
86.0268100788
 30
0.0
 10
65.4296998206
 20
85.7917518184
 30
0.0
  0
SPLINE
  5
3A0
100
AcDbEntity
  8
_1
100
AcDbSpline
 62
7
  6
CONTINUOUS
 70
0
 71
3
 72
8
 73
4
 74
0
 42
0.0000001
 43
0.0000001
 44
0.0000000001
 40
0.0
 40
0.0
 40
0.0
 40
0.0
 40
1.0
 40
1.0
 40
1.0
 40
1.0
 10
126.0709488421
 20
195.6922408997
 30
0.0
 10
126.0977724625
 20
195.7077257951
 30
0.0
 10
126.1270287908
 20
195.7195240627
 30
0.0
 10
126.1570285469
 20
195.727224922
 30
0.0
  0
SPLINE
  5
3A1
100
AcDbEntity
  8
_1
100
AcDbSpline
 62
7
  6
CONTINUOUS
 70
0
 71
3
 72
9
 73
5
 74
0
 42
0.0000001
 43
0.0000001
 44
0.0000000001
 40
0.0
 40
0.0
 40
0.0
 40
0.0
 40
0.456461376
 40
1.0
 40
1.0
 40
1.0
 40
1.0
 10
126.1570285469
 20
195.727224922
 30
0.0
 10
126.2204406449
 20
195.7435026425
 30
0.0
 10
126.3696282044
 20
195.7396944193
 30
0.0
 10
126.5034061035
 20
195.6817418522
 30
0.0
 10
126.570919274
 20
195.6427639868
 30
0.0
  0
SPLINE
  5
3A2
100
AcDbEntity
  8
_1
100
AcDbSpline
 62
7
  6
CONTINUOUS
 70
0
 71
3
 72
11
 73
7
 74
0
 42
0.0000001
 43
0.0000001
 44
0.0000000001
 40
0.0
 40
0.0
 40
0.0
 40
0.0
 40
0.2177746734
 40
0.4509321515
 40
0.7102231861
 40
1.0
 40
1.0
 40
1.0
 40
1.0
 10
35.828056154
 20
149.6749597823
 30
0.0
 10
35.9929806579
 20
149.7701755138
 30
0.0
 10
36.3719332448
 20
149.9077642178
 30
0.0
 10
37.00130691
 20
149.9236310127
 30
0.0
 10
37.6721740363
 20
149.7617790841
 30
0.0
 10
38.1085748431
 20
149.5540673613
 30
0.0
 10
38.3280270446
 20
149.42736944
 30
0.0
  0
SPLINE
  5
3A3
100
AcDbEntity
  8
_1
100
AcDbSpline
 62
7
  6
CONTINUOUS
 70
0
 71
3
 72
11
 73
7
 74
0
 42
0.0000001
 43
0.0000001
 44
0.0000000001
 40
0.0
 40
0.0
 40
0.0
 40
0.0
 40
0.2182576202
 40
0.4516168347
 40
0.7107274315
 40
1.0
 40
1.0
 40
1.0
 40
1.0
 10
29.4641216191
 20
146.0007623975
 30
0.0
 10
29.3010536918
 20
145.9066185219
 30
0.0
 10
28.9957310087
 20
145.6510688317
 30
0.0
 10
28.668775376
 20
145.122620589
 30
0.0
 10
28.471858508
 20
144.4713725061
 30
0.0
 10
28.4305727953
 20
143.9969631868
 30
0.0
 10
28.4286785068
 20
143.7474122059
 30
0.0
  0
SPLINE
  5
3A4
100
AcDbEntity
  8
_1
100
AcDbSpline
 62
7
  6
CONTINUOUS
 70
0
 71
3
 72
13
 73
9
 74
0
 42
0.0000001
 43
0.0000001
 44
0.0000000001
 40
0.0
 40
0.0
 40
0.0
 40
0.0
 40
0.1080948946
 40
0.2182268306
 40
0.3322524239
 40
0.4517050742
 40
0.7105875721
 40
1.0
 40
1.0
 40
1.0
 40
1.0
 10
36.320953268
 20
130.6981636441
 30
0.0
 10
35.9930450979
 20
130.5088477278
 30
0.0
 10
35.3625447784
 20
130.0689994869
 30
0.0
 10
34.5295847267
 20
129.2491238885
 30
0.0
 10
33.813085229
 20
128.2760882818
 30
0.0
 10
33.0008350763
 20
126.7487353355
 30
0.0
 10
32.3312789241
 20
124.4826222132
 30
0.0
 10
32.1786803257
 20
122.5562567989
 30
0.0
 10
32.1786803257
 20
121.5425030353
 30
0.0
  0
SPLINE
  5
3A5
100
AcDbEntity
  8
_1
100
AcDbSpline
 62
7
  6
CONTINUOUS
 70
0
 71
3
 72
20
 73
16
 74
0
 42
0.0000001
 43
0.0000001
 44
0.0000000001
 40
0.0
 40
0.0
 40
0.0
 40
0.0
 40
0.0428333373
 40
0.0874351063
 40
0.1352391492
 40
0.1871707439
 40
0.243641063
 40
0.3046241134
 40
0.3697497443
 40
0.4383867607
 40
0.5826390465
 40
0.729698144
 40
0.8711963851
 40
0.9375861263
 40
1.0
 40
1.0
 40
1.0
 40
1.0
 10
37.5709387575
 20
128.5331116316
 30
0.0
 10
38.0024135162
 20
128.7821679661
 30
0.0
 10
38.9534242256
 20
129.1775660341
 30
0.0
 10
40.5233945407
 20
129.4075853992
 30
0.0
 10
42.2092422086
 20
129.2834481657
 30
0.0
 10
43.9735813005
 20
128.8146645671
 30
0.0
 10
45.7817770101
 20
128.0155403634
 30
0.0
 10
47.5977976808
 20
126.9045205663
 30
0.0
 10
49.3849224048
 20
125.5054468771
 30
0.0
 10
51.7169933221
 20
123.2589455271
 30
0.0
 10
54.3085561311
 20
119.9399670805
 30
0.0
 10
56.7144892507
 20
115.4942549199
 30
0.0
 10
58.0454054182
 20
111.5585332305
 30
0.0
 10
58.5969100469
 20
108.4586183517
 30
0.0
 10
58.6952950187
 20
106.9594130214
 30
0.0
 10
58.6952950187
 20
106.2334747408
 30
0.0
  0
SPLINE
  5
3A6
100
AcDbEntity
  8
_1
100
AcDbSpline
 62
7
  6
CONTINUOUS
 70
0
 71
3
 72
11
 73
7
 74
0
 42
0.0000001
 43
0.0000001
 44
0.0000000001
 40
0.0
 40
0.0
 40
0.0
 40
0.0
 40
0.2177839466
 40
0.4509170841
 40
0.710307871
 40
1.0
 40
1.0
 40
1.0
 40
1.0
 10
31.343026219
 20
109.9263954191
 30
0.0
 10
31.1945976372
 20
109.8406736301
 30
0.0
 10
30.9168499026
 20
109.6072197649
 30
0.0
 10
30.6211805315
 20
109.1237626052
 30
0.0
 10
30.4455798301
 20
108.5279907107
 30
0.0
 10
30.4110119956
 20
108.0943747214
 30
0.0
 10
30.4110119956
 20
107.8663765706
 30
0.0
  0
SPLINE
  5
3A7
100
AcDbEntity
  8
_1
100
AcDbSpline
 62
7
  6
CONTINUOUS
 70
0
 71
3
 72
8
 73
4
 74
0
 42
0.0000001
 43
0.0000001
 44
0.0000000001
 40
0.0
 40
0.0
 40
0.0
 40
0.0
 40
1.0
 40
1.0
 40
1.0
 40
1.0
 10
150.5109062121
 20
138.1665095992
 30
0.0
 10
150.4895352933
 20
138.1405726997
 30
0.0
 10
150.4643593583
 20
138.1172711305
 30
0.0
 10
150.436499191
 20
138.0984761842
 30
0.0
  0
SPLINE
  5
3A8
100
AcDbEntity
  8
_1
100
AcDbSpline
 62
7
  6
CONTINUOUS
 70
0
 71
3
 72
9
 73
5
 74
0
 42
0.0000001
 43
0.0000001
 44
0.0000000001
 40
0.0
 40
0.0
 40
0.0
 40
0.0
 40
0.5322059943
 40
1.0
 40
1.0
 40
1.0
 40
1.0
 10
156.8645756816
 20
142.0604911599
 30
0.0
 10
156.8522360762
 20
141.9992144567
 30
0.0
 10
156.8131938126
 20
141.8855742805
 30
0.0
 10
156.729535625
 20
141.7963531338
 30
0.0
 10
156.6830199415
 20
141.7671147583
 30
0.0
  0
SPLINE
  5
3A9
100
AcDbEntity
  8
_1
100
AcDbSpline
 62
7
  6
CONTINUOUS
 70
0
 71
3
 72
9
 73
5
 74
0
 42
0.0000001
 43
0.0000001
 44
0.0000000001
 40
0.0
 40
0.0
 40
0.0
 40
0.0
 40
0.258357394
 40
1.0
 40
1.0
 40
1.0
 40
1.0
 10
157.640475403
 20
148.7128497465
 30
0.0
 10
157.6171218934
 20
148.1362133126
 30
0.0
 10
157.4867496724
 20
145.9062590034
 30
0.0
 10
157.1916193349
 20
143.6845428475
 30
0.0
 10
156.8645756816
 20
142.0604911599
 30
0.0
  0
SPLINE
  5
3AA
100
AcDbEntity
  8
_1
100
AcDbSpline
 62
7
  6
CONTINUOUS
 70
0
 71
3
 72
9
 73
5
 74
0
 42
0.0000001
 43
0.0000001
 44
0.0000000001
 40
0.0
 40
0.0
 40
0.0
 40
0.0
 40
0.2564204997
 40
1.0
 40
1.0
 40
1.0
 40
1.0
 10
156.8645756816
 20
169.3380938461
 30
0.0
 10
156.9691929118
 20
168.6977809066
 30
0.0
 10
157.3414278687
 20
166.1950479424
 30
0.0
 10
157.5677369366
 20
163.6698449203
 30
0.0
 10
157.640475403
 20
161.7898237016
 30
0.0
  0
SPLINE
  5
3AB
100
AcDbEntity
  8
_1
100
AcDbSpline
 62
7
  6
CONTINUOUS
 70
0
 71
3
 72
10
 73
6
 74
0
 42
0.0000001
 43
0.0000001
 44
0.0000000001
 40
0.0
 40
0.0
 40
0.0
 40
0.0
 40
0.232691107
 40
0.4899398333
 40
1.0
 40
1.0
 40
1.0
 40
1.0
 10
156.1723259162
 20
170.3877463496
 30
0.0
 10
156.2588414227
 20
170.3377977286
 30
0.0
 10
156.4250782641
 20
170.2041740702
 30
0.0
 10
156.6947495568
 20
169.8688462725
 30
0.0
 10
156.8292660806
 20
169.554207333
 30
0.0
 10
156.8645756816
 20
169.3380938461
 30
0.0
  0
SPLINE
  5
3AC
100
AcDbEntity
  8
_1
100
AcDbSpline
 62
7
  6
CONTINUOUS
 70
0
 71
3
 72
11
 73
7
 74
0
 42
0.0000001
 43
0.0000001
 44
0.0000000001
 40
0.0
 40
0.0
 40
0.0
 40
0.0
 40
0.2377690515
 40
0.5005496911
 40
0.7630314763
 40
1.0
 40
1.0
 40
1.0
 40
1.0
 10
150.6499173728
 20
177.6229241789
 30
0.0
 10
150.6542672899
 20
177.0448492988
 30
0.0
 10
150.8767809118
 20
175.8286109283
 30
0.0
 10
151.6361753014
 20
174.1210815297
 30
0.0
 10
152.7414815635
 20
172.6166446151
 30
0.0
 10
153.6863724241
 20
171.8229797981
 30
0.0
 10
154.1853313757
 20
171.5349122301
 30
0.0
  0
SPLINE
  5
3AD
100
AcDbEntity
  8
_1
100
AcDbSpline
 62
7
  6
CONTINUOUS
 70
0
 71
3
 72
11
 73
7
 74
0
 42
0.0000001
 43
0.0000001
 44
0.0000000001
 40
0.0
 40
0.0
 40
0.0
 40
0.0
 40
0.2369927091
 40
0.4994505644
 40
0.7622069344
 40
1.0
 40
1.0
 40
1.0
 40
1.0
 10
149.9178280589
 20
182.1637248518
 30
0.0
 10
150.0176296705
 20
182.1061056679
 30
0.0
 10
150.2066182838
 20
181.9473795533
 30
0.0
 10
150.4276138597
 20
181.6464643646
 30
0.0
 10
150.5795493322
 20
181.3050018136
 30
0.0
 10
150.6240407913
 20
181.0617486936
 30
0.0
 10
150.6249108594
 20
180.946122462
 30
0.0
  0
SPLINE
  5
3AE
100
AcDbEntity
  8
_1
100
AcDbSpline
 62
7
  6
CONTINUOUS
 70
0
 71
3
 72
11
 73
7
 74
0
 42
0.0000001
 43
0.0000001
 44
0.0000000001
 40
0.0
 40
0.0
 40
0.0
 40
0.0
 40
0.2177434119
 40
0.4508805377
 40
0.710457812
 40
1.0
 40
1.0
 40
1.0
 40
1.0
 10
45.345927469
 20
116.6028971834
 30
0.0
 10
45.3459274512
 20
116.6600186434
 30
0.0
 10
45.3249511553
 20
116.7791115437
 30
0.0
 10
45.2346091423
 20
116.945072299
 30
0.0
 10
45.0918184237
 20
117.0949770515
 30
0.0
 10
44.9724479639
 20
117.1772857058
 30
0.0
 10
44.9066671542
 20
117.2152634148
 30
0.0
  0
SPLINE
  5
3AF
100
AcDbEntity
  8
_1
100
AcDbSpline
 62
7
  6
CONTINUOUS
 70
0
 71
3
 72
9
 73
5
 74
0
 42
0.0000001
 43
0.0000001
 44
0.0000000001
 40
0.0
 40
0.0
 40
0.0
 40
0.0
 40
0.256907444
 40
1.0
 40
1.0
 40
1.0
 40
1.0
 10
48.3957289254
 20
142.9693229846
 30
0.0
 10
48.3464757794
 20
142.9356149471
 30
0.0
 10
48.1568063784
 20
142.8014636095
 30
0.0
 10
47.9755381223
 20
142.6552758758
 30
0.0
 10
47.8474084828
 20
142.5395850818
 30
0.0
  0
SPLINE
  5
3B0
100
AcDbEntity
  8
_1
100
AcDbSpline
 62
7
  6
CONTINUOUS
 70
0
 71
3
 72
11
 73
7
 74
0
 42
0.0000001
 43
0.0000001
 44
0.0000000001
 40
0.0
 40
0.0
 40
0.0
 40
0.0
 40
0.275537786
 40
0.5303935941
 40
0.7695203421
 40
1.0
 40
1.0
 40
1.0
 40
1.0
 10
47.8142786577
 20
142.5093767131
 30
0.0
 10
47.6477803608
 20
142.3560573692
 30
0.0
 10
47.3483725383
 20
142.0363157482
 30
0.0
 10
47.004688147
 20
141.5010553358
 30
0.0
 10
46.7933752045
 20
140.9396005062
 30
0.0
 10
46.7455165725
 20
140.5523434551
 30
0.0
 10
46.7455165749
 20
140.3630187568
 30
0.0
  0
SPLINE
  5
3B1
100
AcDbEntity
  8
_1
100
AcDbSpline
 62
7
  6
CONTINUOUS
 70
0
 71
3
 72
11
 73
7
 74
0
 42
0.0000001
 43
0.0000001
 44
0.0000000001
 40
0.0
 40
0.0
 40
0.0
 40
0.0
 40
0.2892725685
 40
0.5483831653
 40
0.7817423798
 40
1.0
 40
1.0
 40
1.0
 40
1.0
 10
73.4054210343
 20
88.3151376842
 30
0.0
 10
73.4035267458
 20
88.0655867034
 30
0.0
 10
73.3622410331
 20
87.5911773841
 30
0.0
 10
73.1653241651
 20
86.9399293012
 30
0.0
 10
72.8383685323
 20
86.4114810585
 30
0.0
 10
72.5330458492
 20
86.1559313683
 30
0.0
 10
72.369977922
 20
86.0617874927
 30
0.0
  0
SPLINE
  5
3B2
100
AcDbEntity
  8
_1
100
AcDbSpline
 62
7
  6
CONTINUOUS
 70
0
 71
3
 72
11
 73
7
 74
0
 42
0.0000001
 43
0.0000001
 44
0.0000000001
 40
0.0
 40
0.0
 40
0.0
 40
0.0
 40
0.2369685237
 40
0.4994503089
 40
0.7622309485
 40
1.0
 40
1.0
 40
1.0
 40
1.0
 10
69.8700070314
 20
131.2170107772
 30
0.0
 10
70.368965983
 20
130.9289432091
 30
0.0
 10
71.3138568435
 20
130.1352783922
 30
0.0
 10
72.4191631056
 20
128.6308414775
 30
0.0
 10
73.1785574953
 20
126.9233120789
 30
0.0
 10
73.4010711171
 20
125.7070737085
 30
0.0
 10
73.4054210343
 20
125.1289988284
 30
0.0
  0
SPLINE
  5
3B3
100
AcDbEntity
  8
_1
100
AcDbSpline
 62
7
  6
CONTINUOUS
 70
0
 71
3
 72
11
 73
7
 74
0
 42
0.0000001
 43
0.0000001
 44
0.0000000001
 40
0.0
 40
0.0
 40
0.0
 40
0.0
 40
0.2182576202
 40
0.4516168347
 40
0.7107274315
 40
1.0
 40
1.0
 40
1.0
 40
1.0
 10
66.0060433871
 20
82.3875901079
 30
0.0
 10
66.1691113143
 20
82.4817339834
 30
0.0
 10
66.4744339974
 20
82.7372836736
 30
0.0
 10
66.8013896302
 20
83.2657319163
 30
0.0
 10
66.9983064982
 20
83.9169799993
 30
0.0
 10
67.0395922108
 20
84.3913893185
 30
0.0
 10
67.0414864994
 20
84.6409402994
 30
0.0
  0
SPLINE
  5
3B4
100
AcDbEntity
  8
_1
100
AcDbSpline
 62
7
  6
CONTINUOUS
 70
0
 71
3
 72
11
 73
7
 74
0
 42
0.0000001
 43
0.0000001
 44
0.0000000001
 40
0.0
 40
0.0
 40
0.0
 40
0.0
 40
0.2897768139
 40
0.5490678485
 40
0.7822253266
 40
1.0
 40
1.0
 40
1.0
 40
1.0
 10
31.9640925097
 20
145.7531720551
 30
0.0
 10
31.7446403082
 20
145.8798699764
 30
0.0
 10
31.3082395014
 20
146.0875816992
 30
0.0
 10
30.637372375
 20
146.2494336279
 30
0.0
 10
30.0079987099
 20
146.2335668329
 30
0.0
 10
29.629046123
 20
146.0959781289
 30
0.0
 10
29.4641216191
 20
146.0007623975
 30
0.0
  0
SPLINE
  5
3B5
100
AcDbEntity
  8
_1
100
AcDbSpline
 62
7
  6
CONTINUOUS
 70
0
 71
3
 72
11
 73
7
 74
0
 42
0.0000001
 43
0.0000001
 44
0.0000000001
 40
0.0
 40
0.0
 40
0.0
 40
0.0
 40
0.2377690515
 40
0.5005496911
 40
0.7630314763
 40
1.0
 40
1.0
 40
1.0
 40
1.0
 10
67.0414864994
 20
121.4548014435
 30
0.0
 10
67.0371365822
 20
122.0328763236
 30
0.0
 10
66.8146229603
 20
123.2491146941
 30
0.0
 10
66.0552285707
 20
124.9566440927
 30
0.0
 10
64.9499223086
 20
126.4610810073
 30
0.0
 10
64.0050314481
 20
127.2547458243
 30
0.0
 10
63.5060724965
 20
127.5428133923
 30
0.0
  0
SPLINE
  5
3B6
100
AcDbEntity
  8
_1
100
AcDbSpline
 62
7
  6
CONTINUOUS
 70
0
 71
3
 72
11
 73
7
 74
0
 42
0.0000001
 43
0.0000001
 44
0.0000000001
 40
0.0
 40
0.0
 40
0.0
 40
0.0
 40
0.3216570139
 40
0.5918998513
 40
0.8122089801
 40
1.0
 40
1.0
 40
1.0
 40
1.0
 10
36.4214211076
 20
111.3365306678
 30
0.0
 10
36.3565383871
 20
111.3739898765
 30
0.0
 10
36.2405019552
 20
111.4492390192
 30
0.0
 10
36.09827357
 20
111.5754204687
 30
0.0
 10
36.0056026439
 20
111.7060615983
 30
0.0
 10
35.9821226401
 20
111.801625846
 30
0.0
 10
35.9821058327
 20
111.84536574
 30
0.0
  0
SPLINE
  5
3B7
100
AcDbEntity
  8
_1
100
AcDbSpline
 62
7
  6
CONTINUOUS
 70
0
 71
3
 72
21
 73
17
 74
0
 42
0.0000001
 43
0.0000001
 44
0.0000000001
 40
0.0
 40
0.0
 40
0.0
 40
0.0
 40
0.0428268763
 40
0.0874216214
 40
0.1352181125
 40
0.1871421202
 40
0.2436045107
 40
0.3045785761
 40
0.3696939012
 40
0.4383201974
 40
0.5825512502
 40
0.7295888003
 40
0.8015971764
 40
0.8712171907
 40
0.9375929223
 40
1.0
 40
1.0
 40
1.0
 40
1.0
 10
37.735160998
 20
131.5146519738
 30
0.0
 10
38.2282477966
 20
131.7993342987
 30
0.0
 10
39.3151683488
 20
132.2511064411
 30
0.0
 10
41.1093773663
 20
132.5140695143
 30
0.0
 10
43.0360683747
 20
132.372251248
 30
0.0
 10
45.0524598273
 20
131.8364860251
 30
0.0
 10
47.1189628157
 20
130.9231556873
 30
0.0
 10
49.1943999035
 20
129.6533812496
 30
0.0
 10
51.2368195715
 20
128.0544880198
 30
0.0
 10
53.9021567659
 20
125.4869834839
 30
0.0
 10
56.863299406
 20
121.6948102876
 30
0.0
 10
59.1737648806
 20
117.4262198681
 30
0.0
 10
60.5502262539
 20
113.839199608
 30
0.0
 10
61.3023480925
 20
111.1735661739
 30
0.0
 10
61.7648121228
 20
108.5723013355
 30
0.0
 10
61.877277006
 20
106.8590392678
 30
0.0
 10
61.877277006
 20
106.0293611623
 30
0.0
  0
SPLINE
  5
3B8
100
AcDbEntity
  8
_1
100
AcDbSpline
 62
7
  6
CONTINUOUS
 70
0
 71
3
 72
11
 73
7
 74
0
 42
0.0000001
 43
0.0000001
 44
0.0000000001
 40
0.0
 40
0.0
 40
0.0
 40
0.0
 40
0.2896413964
 40
0.5491107671
 40
0.7822355978
 40
1.0
 40
1.0
 40
1.0
 40
1.0
 10
61.5405963323
 20
124.4104029167
 30
0.0
 10
61.5405963323
 20
124.5497102604
 30
0.0
 10
61.5617711001
 20
124.814705802
 30
0.0
 10
61.6690248804
 20
125.1788011592
 30
0.0
 10
61.8496934739
 20
125.4743163189
 30
0.0
 10
62.0194948791
 20
125.6168669889
 30
0.0
 10
62.1101788998
 20
125.6692717065
 30
0.0
  0
SPLINE
  5
3B9
100
AcDbEntity
  8
_1
100
AcDbSpline
 62
7
  6
CONTINUOUS
 70
0
 71
3
 72
13
 73
9
 74
0
 42
0.0000001
 43
0.0000001
 44
0.0000000001
 40
0.0
 40
0.0
 40
0.0
 40
0.0
 40
0.1080948946
 40
0.2182268306
 40
0.3322524239
 40
0.4517050742
 40
0.7105875721
 40
1.0
 40
1.0
 40
1.0
 40
1.0
 10
56.3207963893
 20
96.0572122457
 30
0.0
 10
56.6487045594
 20
96.2465281621
 30
0.0
 10
57.2792048789
 20
96.686376403
 30
0.0
 10
58.1121649306
 20
97.5062520013
 30
0.0
 10
58.8286644283
 20
98.479287608
 30
0.0
 10
59.640914581
 20
100.0066405544
 30
0.0
 10
60.3104707332
 20
102.2727536766
 30
0.0
 10
60.4630693316
 20
104.199119091
 30
0.0
 10
60.4630693316
 20
105.2128728545
 30
0.0
  0
SPLINE
  5
3BA
100
AcDbEntity
  8
_1
100
AcDbSpline
 62
7
  6
CONTINUOUS
 70
0
 71
3
 72
10
 73
6
 74
0
 42
0.0000001
 43
0.0000001
 44
0.0000000001
 40
0.0
 40
0.0
 40
0.0
 40
0.0
 40
0.4877997959
 40
0.7557944021
 40
1.0
 40
1.0
 40
1.0
 40
1.0
 10
38.5427414512
 20
111.1264012658
 30
0.0
 10
38.2337057525
 20
110.947980487
 30
0.0
 10
37.6276757437
 20
110.9200563364
 30
0.0
 10
36.9240387104
 20
111.0975747913
 30
0.0
 10
36.5761332711
 20
111.2472095793
 30
0.0
 10
36.4214211076
 20
111.3365306678
 30
0.0
  0
SPLINE
  5
3BB
100
AcDbEntity
  8
_1
100
AcDbSpline
 62
7
  6
CONTINUOUS
 70
0
 71
3
 72
15
 73
11
 74
0
 42
0.0000001
 43
0.0000001
 44
0.0000000001
 40
0.0
 40
0.0
 40
0.0
 40
0.0
 40
0.0950031551
 40
0.1947886407
 40
0.3030548123
 40
0.4219313661
 40
0.552053746
 40
0.692856283
 40
0.8428747928
 40
1.0
 40
1.0
 40
1.0
 40
1.0
 10
55.0708108998
 20
98.2222642583
 30
0.0
 10
54.5911927141
 20
97.9454185219
 30
0.0
 10
53.5198222046
 20
97.5186190635
 30
0.0
 10
51.7448114307
 20
97.3314035222
 30
0.0
 10
49.8405296738
 20
97.580406179
 30
0.0
 10
47.8568408194
 20
98.248797028
 30
0.0
 10
45.8404609701
 20
99.313848399
 30
0.0
 10
43.8404692657
 20
100.7466036741
 30
0.0
 10
41.9072336767
 20
102.5094167247
 30
0.0
 10
40.7163824795
 20
103.8511671866
 30
0.0
 10
40.1422199891
 20
104.5647582188
 30
0.0
  0
SPLINE
  5
3BC
100
AcDbEntity
  8
_1
100
AcDbSpline
 62
7
  6
CONTINUOUS
 70
0
 71
3
 72
9
 73
5
 74
0
 42
0.0000001
 43
0.0000001
 44
0.0000000001
 40
0.0
 40
0.0
 40
0.0
 40
0.0
 40
0.5220709635
 40
1.0
 40
1.0
 40
1.0
 40
1.0
 10
35.4685118559
 20
112.7776362146
 30
0.0
 10
34.9873310573
 20
114.0697287399
 30
0.0
 10
34.244685047
 20
116.616249343
 30
0.0
 10
33.9464546386
 20
119.2596979318
 30
0.0
 10
33.9464546386
 20
120.521901149
 30
0.0
  0
SPLINE
  5
3BD
100
AcDbEntity
  8
_1
100
AcDbSpline
 62
7
  6
CONTINUOUS
 70
0
 71
3
 72
11
 73
7
 74
0
 42
0.0000001
 43
0.0000001
 44
0.0000000001
 40
0.0
 40
0.0
 40
0.0
 40
0.0
 40
0.2187223792
 40
0.4548513651
 40
0.714525571
 40
1.0
 40
1.0
 40
1.0
 40
1.0
 10
37.7140146487
 20
128.4907330373
 30
0.0
 10
37.2699976768
 20
128.1053529283
 30
0.0
 10
36.4624740744
 20
127.1633951324
 30
0.0
 10
35.6150625951
 20
125.421583521
 30
0.0
 10
35.1085263689
 20
123.370510047
 30
0.0
 10
35.0071103944
 20
121.9016361935
 30
0.0
 10
35.0071103944
 20
121.1342673798
 30
0.0
  0
SPLINE
  5
3BE
100
AcDbEntity
  8
_1
100
AcDbSpline
 62
7
  6
CONTINUOUS
 70
0
 71
3
 72
11
 73
7
 74
0
 42
0.0000001
 43
0.0000001
 44
0.0000000001
 40
0.0
 40
0.0
 40
0.0
 40
0.0
 40
0.2896413964
 40
0.5491107671
 40
0.7822355978
 40
1.0
 40
1.0
 40
1.0
 40
1.0
 10
30.0404651855
 20
142.596600687
 30
0.0
 10
30.0404651855
 20
142.7359080307
 30
0.0
 10
30.0616399533
 20
143.0009035723
 30
0.0
 10
30.1688937336
 20
143.3649989295
 30
0.0
 10
30.3495623272
 20
143.6605140892
 30
0.0
 10
30.5193637324
 20
143.8030647592
 30
0.0
 10
30.610047753
 20
143.8554694768
 30
0.0
  0
SPLINE
  5
3BF
100
AcDbEntity
  8
_1
100
AcDbSpline
 62
7
  6
CONTINUOUS
 70
0
 71
3
 72
11
 73
7
 74
0
 42
0.0000001
 43
0.0000001
 44
0.0000000001
 40
0.0
 40
0.0
 40
0.0
 40
0.0
 40
0.2177839466
 40
0.4509170841
 40
0.710307871
 40
1.0
 40
1.0
 40
1.0
 40
1.0
 10
35.8429852986
 20
102.1321909314
 30
0.0
 10
35.9914138804
 20
102.2179127204
 30
0.0
 10
36.269161615
 20
102.4513665856
 30
0.0
 10
36.5648309861
 20
102.9348237453
 30
0.0
 10
36.7404316875
 20
103.5305956398
 30
0.0
 10
36.774999522
 20
103.9642116291
 30
0.0
 10
36.774999522
 20
104.1922097799
 30
0.0
  0
SPLINE
  5
3C0
100
AcDbEntity
  8
_1
100
AcDbSpline
 62
7
  6
CONTINUOUS
 70
0
 71
3
 72
11
 73
7
 74
0
 42
0.0000001
 43
0.0000001
 44
0.0000000001
 40
0.0
 40
0.0
 40
0.0
 40
0.0
 40
0.2860286164
 40
0.5459817539
 40
0.7816357485
 40
1.0
 40
1.0
 40
1.0
 40
1.0
 10
30.0404651855
 20
106.2232737385
 30
0.0
 10
30.0404651855
 20
106.3467746845
 30
0.0
 10
30.0573150484
 20
106.583095785
 30
0.0
 10
30.1408585338
 20
106.9123092838
 30
0.0
 10
30.2811122585
 20
107.1900376753
 30
0.0
 10
30.4145375532
 20
107.3378805836
 30
0.0
 10
30.4875752348
 20
107.3975056408
 30
0.0
  0
SPLINE
  5
3C1
100
AcDbEntity
  8
_1
100
AcDbSpline
 62
7
  6
CONTINUOUS
 70
0
 71
3
 72
11
 73
7
 74
0
 42
0.0000001
 43
0.0000001
 44
0.0000000001
 40
0.0
 40
0.0
 40
0.0
 40
0.0
 40
0.2896413964
 40
0.5491107671
 40
0.7822355978
 40
1.0
 40
1.0
 40
1.0
 40
1.0
 10
61.5405963323
 20
88.0370759682
 30
0.0
 10
61.5405963323
 20
88.1763833119
 30
0.0
 10
61.5617711001
 20
88.4413788535
 30
0.0
 10
61.6690248804
 20
88.8054742107
 30
0.0
 10
61.8496934739
 20
89.1009893704
 30
0.0
 10
62.0194948791
 20
89.2435400404
 30
0.0
 10
62.1101788998
 20
89.295944758
 30
0.0
  0
SPLINE
  5
3C2
100
AcDbEntity
  8
_1
100
AcDbSpline
 62
7
  6
CONTINUOUS
 70
0
 71
3
 72
17
 73
13
 74
0
 42
0.0000001
 43
0.0000001
 44
0.0000000001
 40
0.0
 40
0.0
 40
0.0
 40
0.0
 40
0.0428592926
 40
0.087485474
 40
0.1353198781
 40
0.1872819044
 40
0.3045421965
 40
0.4382074305
 40
0.582548911
 40
0.7297129633
 40
0.8713059682
 40
1.0
 40
1.0
 40
1.0
 40
1.0
 10
45.131548334
 20
117.8871610294
 30
0.0
 10
45.2424832099
 20
117.9512201048
 30
0.0
 10
45.4870589873
 20
118.0527766114
 30
0.0
 10
45.8907095874
 20
118.1120246787
 30
0.0
 10
46.3242178654
 20
118.0800848337
 30
0.0
 10
46.9540952104
 20
117.9125582055
 30
0.0
 10
47.7592956751
 20
117.4722696979
 30
0.0
 10
48.6489142476
 20
116.6844203094
 30
0.0
 10
49.4353345448
 20
115.6778764463
 30
0.0
 10
50.0542376319
 20
114.5339278439
 30
0.0
 10
50.4559244078
 20
113.3464084315
 30
0.0
 10
50.5635243476
 20
112.5376238285
 30
0.0
 10
50.5635243476
 20
112.1529707804
 30
0.0
  0
SPLINE
  5
3C3
100
AcDbEntity
  8
_1
100
AcDbSpline
 62
7
  6
CONTINUOUS
 70
0
 71
3
 72
11
 73
7
 74
0
 42
0.0000001
 43
0.0000001
 44
0.0000000001
 40
0.0
 40
0.0
 40
0.0
 40
0.0
 40
0.2177723091
 40
0.4509273687
 40
0.7102218233
 40
1.0
 40
1.0
 40
1.0
 40
1.0
 10
46.7455165749
 20
140.3630187568
 30
0.0
 10
46.7455165783
 20
140.0964094531
 30
0.0
 10
46.8439778429
 20
139.5406465375
 30
0.0
 10
47.2653067087
 20
138.7664670874
 30
0.0
 10
47.9311732109
 20
138.0663934036
 30
0.0
 10
48.48850275
 20
137.6826881706
 30
0.0
 10
48.7957382589
 20
137.5053096797
 30
0.0
  0
SPLINE
  5
3C4
100
AcDbEntity
  8
_1
100
AcDbSpline
 62
7
  6
CONTINUOUS
 70
0
 71
3
 72
13
 73
9
 74
0
 42
0.0000001
 43
0.0000001
 44
0.0000000001
 40
0.0
 40
0.0
 40
0.0
 40
0.0
 40
0.2894096172
 40
0.5482912566
 40
0.6677444818
 40
0.7817706365
 40
0.89190365
 40
1.0
 40
1.0
 40
1.0
 40
1.0
 10
61.877277006
 20
106.0293611623
 30
0.0
 10
61.877277006
 20
105.0156171424
 30
0.0
 10
61.7246828309
 20
103.0892636609
 30
0.0
 10
61.0551304448
 20
100.8231624148
 30
0.0
 10
60.2428946138
 20
99.2958000319
 30
0.0
 10
59.5263876345
 20
98.3227601905
 30
0.0
 10
58.6934262692
 20
97.5028701627
 30
0.0
 10
58.0629162037
 20
97.0630197475
 30
0.0
 10
57.7350040082
 20
96.8737005315
 30
0.0
  0
SPLINE
  5
3C5
100
AcDbEntity
  8
_1
100
AcDbSpline
 62
7
  6
CONTINUOUS
 70
0
 71
3
 72
16
 73
12
 74
0
 42
0.0000001
 43
0.0000001
 44
0.0000000001
 40
0.0
 40
0.0
 40
0.0
 40
0.0
 40
0.0428765743
 40
0.0875234667
 40
0.186928609
 40
0.3042403422
 40
0.4379658104
 40
0.582370771
 40
0.729593422
 40
0.8712541043
 40
1.0
 40
1.0
 40
1.0
 40
1.0
 10
33.3599861064
 20
139.0924077473
 30
0.0
 10
33.2922074891
 20
139.0532396638
 30
0.0
 10
33.1427489943
 20
138.9911523531
 30
0.0
 10
32.8021366228
 20
138.9411976115
 30
0.0
 10
32.3212604546
 20
139.0350972349
 30
0.0
 10
31.7547927394
 20
139.3458014653
 30
0.0
 10
31.2102820153
 20
139.8274186364
 30
0.0
 10
30.7299618085
 20
140.4424870592
 30
0.0
 10
30.3516576592
 20
141.1415756014
 30
0.0
 10
30.1062341134
 20
141.867283551
 30
0.0
 10
30.0404651855
 20
142.3615424265
 30
0.0
 10
30.0404651855
 20
142.596600687
 30
0.0
  0
SPLINE
  5
3C6
100
AcDbEntity
  8
_1
100
AcDbSpline
 62
7
  6
CONTINUOUS
 70
0
 71
3
 72
11
 73
7
 74
0
 42
0.0000001
 43
0.0000001
 44
0.0000000001
 40
0.0
 40
0.0
 40
0.0
 40
0.0
 40
0.2895416688
 40
0.549118971
 40
0.7822562702
 40
1.0
 40
1.0
 40
1.0
 40
1.0
 10
44.9066759861
 20
115.9905360522
 30
0.0
 10
44.9724555556
 20
116.0285136777
 30
0.0
 10
45.0918237241
 20
116.1108221091
 30
0.0
 10
45.2346116536
 20
116.2607257043
 30
0.0
 10
45.3249516313
 20
116.4266849018
 30
0.0
 10
45.3459274867
 20
116.5457763768
 30
0.0
 10
45.345927469
 20
116.6028971834
 30
0.0
  0
SPLINE
  5
3C7
100
AcDbEntity
  8
_1
100
AcDbSpline
 62
7
  6
CONTINUOUS
 70
0
 71
3
 72
11
 73
7
 74
0
 42
0.0000001
 43
0.0000001
 44
0.0000000001
 40
0.0
 40
0.0
 40
0.0
 40
0.0
 40
0.2372531816
 40
0.5000006935
 40
0.7627478297
 40
1.0
 40
1.0
 40
1.0
 40
1.0
 10
36.4214211077
 20
112.3163335684
 30
0.0
 10
36.5720133381
 20
112.2293910705
 30
0.0
 10
36.9221912073
 20
112.1025014204
 30
0.0
 10
37.4820832544
 20
112.0418376099
 30
0.0
 10
38.0419742634
 20
112.1025040957
 30
0.0
 10
38.3921504896
 20
112.2293954542
 30
0.0
 10
38.5427414512
 20
112.3163386674
 30
0.0
  0
SPLINE
  5
3C8
100
AcDbEntity
  8
_1
100
AcDbSpline
 62
7
  6
CONTINUOUS
 70
0
 71
3
 72
16
 73
12
 74
0
 42
0.0000001
 43
0.0000001
 44
0.0000000001
 40
0.0
 40
0.0
 40
0.0
 40
0.0
 40
0.0428765743
 40
0.0875234667
 40
0.186928609
 40
0.3042403422
 40
0.4379658104
 40
0.582370771
 40
0.729593422
 40
0.8712541043
 40
1.0
 40
1.0
 40
1.0
 40
1.0
 10
64.8601172531
 20
120.906209977
 30
0.0
 10
64.7923386358
 20
120.8670418934
 30
0.0
 10
64.642880141
 20
120.8049545828
 30
0.0
 10
64.3022677696
 20
120.7549998412
 30
0.0
 10
63.8213916014
 20
120.8488994646
 30
0.0
 10
63.2549238862
 20
121.159603695
 30
0.0
 10
62.7104131621
 20
121.6412208661
 30
0.0
 10
62.2300929552
 20
122.2562892889
 30
0.0
 10
61.851788806
 20
122.9553778311
 30
0.0
 10
61.6063652601
 20
123.6810857807
 30
0.0
 10
61.5405963323
 20
124.1753446562
 30
0.0
 10
61.5405963323
 20
124.4104029167
 30
0.0
  0
SPLINE
  5
3C9
100
AcDbEntity
  8
_1
100
AcDbSpline
 62
7
  6
CONTINUOUS
 70
0
 71
3
 72
17
 73
13
 74
0
 42
0.0000001
 43
0.0000001
 44
0.0000000001
 40
0.0
 40
0.0
 40
0.0
 40
0.0
 40
0.1286930371
 40
0.2702795962
 40
0.4174375935
 40
0.5617786795
 40
0.6954478243
 40
0.81271112
 40
0.8646738576
 40
0.9125098523
 40
0.9571380034
 40
1.0
 40
1.0
 40
1.0
 40
1.0
 10
36.774999522
 20
104.1922097799
 30
0.0
 10
36.774999522
 20
104.5768598138
 30
0.0
 10
36.667404559
 20
105.3856222892
 30
0.0
 10
36.2657365525
 20
106.5731046151
 30
0.0
 10
35.6468677382
 20
107.7170266229
 30
0.0
 10
34.860468225
 20
108.7235780069
 30
0.0
 10
33.97084969
 20
109.5114524366
 30
0.0
 10
33.1656405838
 20
109.9517823846
 30
0.0
 10
32.5357474274
 20
110.1193025155
 30
0.0
 10
32.1022273227
 20
110.1512747799
 30
0.0
 10
31.698561054
 20
110.0920100774
 30
0.0
 10
31.4539641769
 20
109.9904652911
 30
0.0
 10
31.343026219
 20
109.9263954191
 30
0.0
  0
SPLINE
  5
3CA
100
AcDbEntity
  8
_1
100
AcDbSpline
 62
7
  6
CONTINUOUS
 70
0
 71
3
 72
11
 73
7
 74
0
 42
0.0000001
 43
0.0000001
 44
0.0000000001
 40
0.0
 40
0.0
 40
0.0
 40
0.0
 40
0.2177434119
 40
0.4508805377
 40
0.710457812
 40
1.0
 40
1.0
 40
1.0
 40
1.0
 10
35.9821607929
 20
112.9286997998
 30
0.0
 10
35.9821608106
 20
112.8715783398
 30
0.0
 10
36.0031371065
 20
112.7524854395
 30
0.0
 10
36.0934791196
 20
112.5865246842
 30
0.0
 10
36.2362698382
 20
112.4366199317
 30
0.0
 10
36.3556402979
 20
112.3543112774
 30
0.0
 10
36.4214211077
 20
112.3163335684
 30
0.0
  0
SPLINE
  5
3CB
100
AcDbEntity
  8
_1
100
AcDbSpline
 62
7
  6
CONTINUOUS
 70
0
 71
3
 72
9
 73
5
 74
0
 42
0.0000001
 43
0.0000001
 44
0.0000000001
 40
0.0
 40
0.0
 40
0.0
 40
0.0
 40
0.4811276633
 40
1.0
 40
1.0
 40
1.0
 40
1.0
 10
45.3459882372
 20
115.5195643754
 30
0.0
 10
45.3460166411
 20
115.3795316312
 30
0.0
 10
45.2625368737
 20
115.0830565254
 30
0.0
 10
45.0374619321
 20
114.876107501
 30
0.0
 10
44.9066759863
 20
114.8005986508
 30
0.0
  0
SPLINE
  5
3CC
100
AcDbEntity
  8
_1
100
AcDbSpline
 62
7
  6
CONTINUOUS
 70
0
 71
3
 72
11
 73
7
 74
0
 42
0.0000001
 43
0.0000001
 44
0.0000000001
 40
0.0
 40
0.0
 40
0.0
 40
0.0
 40
0.2897781767
 40
0.5490726313
 40
0.7822276909
 40
1.0
 40
1.0
 40
1.0
 40
1.0
 10
48.7957382589
 20
137.2603589545
 30
0.0
 10
48.48850275
 20
137.4377374455
 30
0.0
 10
47.9311732109
 20
137.8214426785
 30
0.0
 10
47.2653067087
 20
138.5215163623
 30
0.0
 10
46.8439778429
 20
139.2956958124
 30
0.0
 10
46.7455165783
 20
139.851458728
 30
0.0
 10
46.7455165749
 20
140.1180680317
 30
0.0
  0
SPLINE
  5
3CD
100
AcDbEntity
  8
_1
100
AcDbSpline
 62
7
  6
CONTINUOUS
 70
0
 71
3
 72
13
 73
9
 74
0
 42
0.0000001
 43
0.0000001
 44
0.0000000001
 40
0.0
 40
0.0
 40
0.0
 40
0.0
 40
0.1142483233
 40
0.2375469957
 40
0.4999994774
 40
0.7624522452
 40
0.8857512516
 40
1.0
 40
1.0
 40
1.0
 40
1.0
 10
58.6952331954
 20
137.26038275
 30
0.0
 10
58.3564088706
 20
137.0647636026
 30
0.0
 10
57.6153785334
 20
136.7196759728
 30
0.0
 10
55.9731113723
 20
136.2208977336
 30
0.0
 10
53.7454934813
 20
135.9786022037
 30
0.0
 10
51.5178734483
 20
136.2208874339
 30
0.0
 10
49.8756001328
 20
136.7196575946
 30
0.0
 10
49.1345652549
 20
137.0647415226
 30
0.0
 10
48.7957382589
 20
137.2603589545
 30
0.0
  0
SPLINE
  5
3CE
100
AcDbEntity
  8
_1
100
AcDbSpline
 62
7
  6
CONTINUOUS
 70
0
 71
3
 72
16
 73
12
 74
0
 42
0.0000001
 43
0.0000001
 44
0.0000000001
 40
0.0
 40
0.0
 40
0.0
 40
0.0
 40
0.0428765743
 40
0.0875234667
 40
0.186928609
 40
0.3042403422
 40
0.4379658104
 40
0.582370771
 40
0.729593422
 40
0.8712541043
 40
1.0
 40
1.0
 40
1.0
 40
1.0
 10
64.8601172531
 20
84.5328830286
 30
0.0
 10
64.7923386358
 20
84.493714945
 30
0.0
 10
64.642880141
 20
84.4316276343
 30
0.0
 10
64.3022677696
 20
84.3816728927
 30
0.0
 10
63.8213916014
 20
84.4755725161
 30
0.0
 10
63.2549238862
 20
84.7862767465
 30
0.0
 10
62.7104131621
 20
85.2678939177
 30
0.0
 10
62.2300929552
 20
85.8829623404
 30
0.0
 10
61.851788806
 20
86.5820508826
 30
0.0
 10
61.6063652601
 20
87.3077588322
 30
0.0
 10
61.5405963323
 20
87.8020177077
 30
0.0
 10
61.5405963323
 20
88.0370759682
 30
0.0
  0
SPLINE
  5
3CF
100
AcDbEntity
  8
_1
100
AcDbSpline
 62
7
  6
CONTINUOUS
 70
0
 71
3
 72
9
 73
5
 74
0
 42
0.0000001
 43
0.0000001
 44
0.0000000001
 40
0.0
 40
0.0
 40
0.0
 40
0.0
 40
0.4783110269
 40
1.0
 40
1.0
 40
1.0
 40
1.0
 10
35.0071103944
 20
121.1342673798
 30
0.0
 10
35.0071103944
 20
119.9130470975
 30
0.0
 10
35.2863214275
 20
117.3574947199
 30
0.0
 10
35.9851329374
 20
114.8906487461
 30
0.0
 10
36.4381190304
 20
113.6380696246
 30
0.0
  0
SPLINE
  5
3D0
100
AcDbEntity
  8
_1
100
AcDbSpline
 62
7
  6
CONTINUOUS
 70
0
 71
3
 72
14
 73
10
 74
0
 42
0.0000001
 43
0.0000001
 44
0.0000000001
 40
0.0
 40
0.0
 40
0.0
 40
0.0
 40
0.3012177966
 40
0.4409836515
 40
0.5714837804
 40
0.6920062072
 40
0.8026523214
 40
0.9045486385
 40
1.0
 40
1.0
 40
1.0
 40
1.0
 10
41.2030436344
 20
105.176916367
 30
0.0
 10
42.2310975473
 20
103.8992352406
 30
0.0
 10
43.9037078704
 20
102.1486778144
 30
0.0
 10
46.3885994537
 20
100.2676917551
 30
0.0
 10
48.230996603
 20
99.1916389484
 30
0.0
 10
50.0586779083
 20
98.4397398072
 30
0.0
 10
51.8352749576
 20
98.0304026922
 30
0.0
 10
53.5230536573
 20
97.9772112514
 30
0.0
 10
54.5887717982
 20
98.1913119132
 30
0.0
 10
55.0807113173
 20
98.358795426
 30
0.0
  0
SPLINE
  5
3D1
100
AcDbEntity
  8
_1
100
AcDbSpline
 62
7
  6
CONTINUOUS
 70
0
 71
3
 72
13
 73
9
 74
0
 42
0.0000001
 43
0.0000001
 44
0.0000000001
 40
0.0
 40
0.0
 40
0.0
 40
0.0
 40
0.1142487484
 40
0.2375477548
 40
0.5000005226
 40
0.7624530043
 40
0.8857516767
 40
1.0
 40
1.0
 40
1.0
 40
1.0
 10
48.7957382589
 20
137.5053096797
 30
0.0
 10
49.1345652549
 20
137.3096922478
 30
0.0
 10
49.8756001328
 20
136.9646083197
 30
0.0
 10
51.5178734483
 20
136.4658381591
 30
0.0
 10
53.7454934813
 20
136.2235529289
 30
0.0
 10
55.9731113723
 20
136.4658484587
 30
0.0
 10
57.6153785334
 20
136.964626698
 30
0.0
 10
58.3564088706
 20
137.3097143277
 30
0.0
 10
58.6952331954
 20
137.5053334751
 30
0.0
  0
SPLINE
  5
3D2
100
AcDbEntity
  8
_1
100
AcDbSpline
 62
7
  6
CONTINUOUS
 70
0
 71
3
 72
11
 73
7
 74
0
 42
0.0000001
 43
0.0000001
 44
0.0000000001
 40
0.0
 40
0.0
 40
0.0
 40
0.0
 40
0.2897016594
 40
0.5490895814
 40
0.7822189142
 40
1.0
 40
1.0
 40
1.0
 40
1.0
 10
50.5635243476
 20
112.1529707804
 30
0.0
 10
50.5635243476
 20
111.9249649336
 30
0.0
 10
50.5289555506
 20
111.4913439108
 30
0.0
 10
50.3533534251
 20
110.8955669567
 30
0.0
 10
50.0576762239
 20
110.4121280695
 30
0.0
 10
49.7799448186
 20
110.1786590115
 30
0.0
 10
49.6315128349
 20
110.0929473221
 30
0.0
  0
SPLINE
  5
3D3
100
AcDbEntity
  8
_1
100
AcDbSpline
 62
7
  6
CONTINUOUS
 70
0
 71
3
 72
15
 73
11
 74
0
 42
0.0000001
 43
0.0000001
 44
0.0000000001
 40
0.0
 40
0.0
 40
0.0
 40
0.0
 40
0.0882507286
 40
0.190488204
 40
0.3099759174
 40
0.4443755397
 40
0.5879748132
 40
0.7333986089
 40
0.8729716032
 40
1.0
 40
1.0
 40
1.0
 40
1.0
 10
33.239254108
 20
102.6606281633
 30
0.0
 10
33.0932096989
 20
102.6026199234
 30
0.0
 10
32.7430344864
 20
102.5606577087
 30
0.0
 10
32.2032392446
 20
102.7138604578
 30
0.0
 10
31.6568926701
 20
103.0469885651
 30
0.0
 10
31.1387142787
 20
103.5352018873
 30
0.0
 10
30.6852118383
 20
104.1417657562
 30
0.0
 10
30.3304690382
 20
104.8213638271
 30
0.0
 10
30.1014135443
 20
105.521816715
 30
0.0
 10
30.0404651855
 20
105.9970815603
 30
0.0
 10
30.0404651855
 20
106.2232737385
 30
0.0
  0
SPLINE
  5
3D4
100
AcDbEntity
  8
_1
100
AcDbSpline
 62
7
  6
CONTINUOUS
 70
0
 71
3
 72
21
 73
17
 74
0
 42
0.0000001
 43
0.0000001
 44
0.0000000001
 40
0.0
 40
0.0
 40
0.0
 40
0.0
 40
0.0624063981
 40
0.1287811116
 40
0.1984009549
 40
0.2704093992
 40
0.4174484773
 40
0.5616817875
 40
0.6303088419
 40
0.6954245047
 40
0.7563985041
 40
0.8128604846
 40
0.8647838254
 40
0.9125795735
 40
0.9571736443
 40
1.0
 40
1.0
 40
1.0
 40
1.0
 10
60.4630693316
 20
105.2128728545
 30
0.0
 10
60.4630693316
 20
106.0425419432
 30
0.0
 10
60.3506109513
 20
107.7557817689
 30
0.0
 10
59.8881519223
 20
110.3570222645
 30
0.0
 10
59.1360434121
 20
113.0226439118
 30
0.0
 10
57.7595801044
 20
116.6096839822
 30
0.0
 10
55.4490967687
 20
120.878323712
 30
0.0
 10
52.4879105353
 20
124.6705414938
 30
0.0
 10
49.8225324435
 20
127.2380681295
 30
0.0
 10
47.7800950913
 20
128.8369612936
 30
0.0
 10
45.7046523974
 20
130.1067233776
 30
0.0
 10
43.6381567407
 20
131.0200332167
 30
0.0
 10
41.6217840252
 20
131.5557747363
 30
0.0
 10
39.6951204083
 20
131.6975776108
 30
0.0
 10
37.9009378419
 20
131.4346121875
 30
0.0
 10
36.8140347184
 20
130.9828414141
 30
0.0
 10
36.320953268
 20
130.6981636441
 30
0.0
  0
SPLINE
  5
3D5
100
AcDbEntity
  8
_1
100
AcDbSpline
 62
7
  6
CONTINUOUS
 70
0
 71
3
 72
12
 73
8
 74
0
 42
0.0000001
 43
0.0000001
 44
0.0000000001
 40
0.0
 40
0.0
 40
0.0
 40
0.0
 40
0.2895861511
 40
0.5486319619
 40
0.7816377718
 40
0.8918381774
 40
1.0
 40
1.0
 40
1.0
 40
1.0
 10
33.9464546386
 20
120.521901149
 30
0.0
 10
33.9464546386
 20
121.4089208089
 30
0.0
 10
34.0808243725
 20
123.0954401514
 30
0.0
 10
34.7628140383
 20
125.4112613407
 30
0.0
 10
35.7427185796
 20
127.009128885
 30
0.0
 10
36.732382883
 20
127.9824366622
 30
0.0
 10
37.2840031966
 20
128.3674863716
 30
0.0
 10
37.5709387575
 20
128.5331116316
 30
0.0
  0
ELLIPSE
  5
3D6
100
AcDbEntity
  8
_1
100
AcDbEllipse
 62
7
  6
CONTINUOUS
 10
181.2008449302
 20
244.9328281041
 30
0.0
 11
-6.9732295899
 21
12.1706873307
 31
0.0
 40
0.5773483695
 41
4.2785797136
 42
6.2393851432
  0
ELLIPSE
  5
3D7
100
AcDbEntity
  8
_1
100
AcDbEllipse
 62
7
  6
CONTINUOUS
 10
51.8632486721
 20
183.326424362
 30
0.0
 11
113.9080210456
 21
65.2639215266
 31
0.0
 40
0.0753349731
 41
5.8994267763
 42
6.7545441822
  0
ELLIPSE
  5
3D8
100
AcDbEntity
  8
_1
100
AcDbEllipse
 62
7
  6
CONTINUOUS
 10
447.7136169539
 20
371.8788508441
 30
0.0
 11
273.5438290272
 21
140.9202579684
 31
0.0
 40
0.0331551908
 41
2.7767462179
 42
2.8170317133
  0
ELLIPSE
  5
3D9
100
AcDbEntity
  8
_1
100
AcDbEllipse
 62
7
  6
CONTINUOUS
 10
206.5906132464
 20
216.2328827967
 30
0.0
 11
2.3730687665
 21
4.4026444242
 31
0.0
 40
0.556862072
 41
-2.372483465
 42
-0.8016871382
  0
ELLIPSE
  5
3DA
100
AcDbEntity
  8
_1
100
AcDbEllipse
 62
7
  6
CONTINUOUS
 10
200.6463741476
 20
232.2161069485
 30
0.0
 11
-6.9732295899
 21
12.1706873307
 31
0.0
 40
0.5773483695
 41
4.2636328641
 42
6.2393851482
  0
ELLIPSE
  5
3DB
100
AcDbEntity
  8
_1
100
AcDbEllipse
 62
7
  6
CONTINUOUS
 10
72.7229855639
 20
171.2833221037
 30
0.0
 11
113.9080210456
 21
65.2639215266
 31
0.0
 40
0.0753349731
 41
-0.3837585309
 42
0.471358875
  0
ELLIPSE
  5
3DC
100
AcDbEntity
  8
_1
100
AcDbEllipse
 62
7
  6
CONTINUOUS
 10
468.5733538458
 20
359.8357485857
 30
0.0
 11
273.5438290272
 21
140.9202579684
 31
0.0
 40
0.0331551908
 41
2.7916930674
 42
3.1245139142
  0
ELLIPSE
  5
3DD
100
AcDbEntity
  8
_1
100
AcDbEllipse
 62
7
  6
CONTINUOUS
 10
184.5669026401
 20
195.1053305655
 30
0.0
 11
2.0
 21
-0.0000000011
 31
0.0
 40
0.5773859831
 41
-2.3561522499
 42
-1.1143166368
  0
ELLIPSE
  5
3DE
100
AcDbEntity
  8
_1
100
AcDbEllipse
 62
7
  6
CONTINUOUS
 10
148.8450454503
 20
215.7288878628
 30
0.0
 11
2.0001523106
 21
0.0000000011
 31
0.0
 40
0.5772980511
 41
8.9875740773
 42
10.2101422107
  0
ENDSEC
  0
SECTION
  2
OBJECTS
  0
DICTIONARY
  5
C
100
AcDbDictionary
280
0
281
1
  3
ACAD_GROUP
350
D
  3
ACAD_MLINESTYLE
350
17
  3
ACAD_LAYOUT
350
1A
  3
ACAD_PLOTSETTINGS
350
19
  3
ACAD_PLOTSTYLENAME
350
E
  0
DICTIONARY
  5
D
102
{ACAD_REACTORS
330
C
102
}
100
AcDbDictionary
280
0
281
1
  0
ACDBDICTIONARYWDFLT
  5
E
102
{ACAD_REACTORS
330
C
102
}
100
AcDbDictionary
281
1
  3
Normal
350
F
100
AcDbDictionaryWithDefault
340
F
  0
DICTIONARY
  5
17
102
{ACAD_REACTORS
330
C
102
}
100
AcDbDictionary
280
0
281
1
  3
Standard
350
18
  0
DICTIONARY
  5
19
102
{ACAD_REACTORS
330
C
102
}
100
AcDbDictionary
281
1
  0
DICTIONARY
  5
1A
102
{ACAD_REACTORS
330
C
102
}
100
AcDbDictionary
281
1
  3
Model
350
3DF
  3
Layout1
350
3E0
  0
ACDBPLACEHOLDER
  5
F
102
{ACAD_REACTORS
330
E
102
}
  0
MLINESTYLE
  5
18
102
{ACAD_REACTORS
330
17
102
}
100
AcDbMlineStyle
  2
STANDARD
 70
0
  3

 62
256
 51
90.0
 52
90.0
 71
2
 49
0.5
 62
256
  6
BYLAYER
 49
-0.5
 62
256
  6
BYLAYER
  0
LAYOUT
  5
3DF
102
{ACAD_REACTORS
330
1A
102
}
100
AcDbPlotSettings
  1

  2
none_device
  4

  6

 40
0.0
 41
0.0
 42
0.0
 43
0.0
 44
210.0
 45
297.0
 46
0.0
 47
0.0
 48
0.0
 49
0.0
140
0.0
141
0.0
142
1.0
143
1.0
 70
1024
 72
1
 73
0
 74
0
  7

 75
0
147
1.0
148
0.0
149
0.0
100
AcDbLayout
  1
Model
 70
0
 71
0
 10
0.0
 20
0.0
 11
210.0
 21
297.0
 12
0.0
 22
0.0
 32
0.0
 14
0.0
 24
0.0
 34
0.0
 15
0.0
 25
0.0
 35
0.0
146
0.0
 13
0.0
 23
0.0
 33
0.0
 16
1.0
 26
0.0
 36
0.0
 17
0.0
 27
1.0
 37
0.0
 76
0
330
211
345
0
346
0
  0
LAYOUT
  5
3E0
102
{ACAD_REACTORS
330
1A
102
}
100
AcDbPlotSettings
  1

  2
none_device
  4

  6

 40
0.0
 41
0.0
 42
0.0
 43
0.0
 44
210.0
 45
297.0
 46
0.0
 47
0.0
 48
0.0
 49
0.0
140
0.0
141
0.0
142
1.0
143
1.0
 70
0
 72
1
 73
0
 74
0
  7

 75
0
147
1.0
148
0.0
149
0.0
100
AcDbLayout
  1
Layout1
 70
0
 71
1
 10
0.0
 20
0.0
 11
210.0
 21
297.0
 12
0.0
 22
0.0
 32
0.0
 14
0.0
 24
0.0
 34
0.0
 15
0.0
 25
0.0
 35
0.0
146
0.0
 13
0.0
 23
0.0
 33
0.0
 16
1.0
 26
0.0
 36
0.0
 17
0.0
 27
1.0
 37
0.0
 76
0
330
212
345
0
346
0
  0
ENDSEC
  0
EOF
